The Ancient Master Descends from the Mountains (Live A Live) Guitar Tab

Submitted: Nov 01, 2007 by Stamen47 (Last updated: Sep 24, 2009)

5
Average: 5 (2 votes)
Download | Listen
Game: Live A Live
Composer(s): Yoko Shimomura
Style: Arrangement, Fingerstyle

AutoScroll: Slow | Medium | Fast
                 THE ANCIENT MASTER DESCENDS FROM THE MOUNTAINS

Music by Yoko Shimomura
Arranged by Stamen47

Gtr I (E A D G B E) 

  Q=162
 3/4
  Gtr I
  E E Q  E E   H       E  E   Q  Q  T T +S  E   H.           E E Q  E E
|-2-2-0----0-|--------------|-----------------|------------|-2-2-0----0-|
|--------2---|-0------------|-0--2--0-2-------|------------|--------2---|
|-----2--2---|------------2-|----2----------2-|------------|-----2--2---|
|------------|---------4----|-4---------------|-4----------|------------|
|------------|----2-2--2----|-5--4------------|-----0-4-0--|------------|
|-2----------|-0------------|-------0---------|-2----------|-2----------|
  Q   Q  Q     Q  E E  Q      Q  Q  Q           Q   E E Q    Q   Q  Q


  H      E E   Q  Q  Q    H.           Q.     E E E   H.
|------------|----0-----|------------|-2--------2-4-|---------------|
|-0----------|-0-----4--|-2----------|--------5-2-5-|-2-------------|
|----------2-|----------|------------|--------2-----|-1-------------|
|--------4---|----------|------------|------4-------|----2-1--------|
|----2-2-2---|----0--2--|-4----0-4---|----4---------|--------4-2----|
|-0----------|-4--------|----------4-|-2------------|------------4--|
  Q  E E Q     Q  Q  Q    Q.   E E E   E  E E E E E   E  E E E E E


  Q.      E Q     H.             Q.     E E E   Q   Q   Q     Q   E E E E
|---------------|--------------|------------0-|-2---1---2---|-4---7---5----|
|-0---------0---|-2------------|-3------2-3-2-|-3-----------|-6---6---3----|
|---------2-1---|-2----2-1-----|--------2-4---|---4---------|--------------|
|------2--------|----2-----4-2-|-0--2-4-------|-------0-----|---6-----0----|
|----2--------2-|-0------------|--------------|-----------2-|-4------------|
|-0-------------|--------------|--------------|-------------|--------------|
  E  E Q.     E   E  E E E E E   E  E E E E E   E Q   Q   E   E Q   E E E


  H.            E E Q  E E   H       E  E   Q  Q  T T +S  E   H.
|-4-----------|-2-2-0----0-|--------------|-----------------|-------------|
|-2-----------|--------2---|-0------------|-0--2----0-------|-------------|
|-------------|-----2--2---|------------2-|----2--2-------2-|-------------|
|-------------|------------|---------4----|-4---------------|-4--------4--|
|-----4-2-0---|------------|----2-2--2----|-5--4------------|--------4----|
|-----------4-|-2----------|-0------------|-------0---------|-2----2------|
  Q   E E E E   Q   Q  Q     Q  E E  Q      Q  Q  Q           Q.   E E E


  H       E E   Q   Q   Q      H             E
|-0---------0-|-7---5---4---|--3-------------2--|
|---------2---|-------------|--0----------------|
|-2-----------|-7---6---4---|------------0------|
|---2---2-----|-------------|-------0-----------|
|-----4---0---|---0---0---0-|-(0)---------------|
|-------------|-------------|-----3---3------3--|
  E E E E Q     E Q   Q   E   +E  E E E  E   E


   H        E  E     H       E E
|--3--------5-(5)\-|-2-------5-7--|
|--0-----------0---|--------------|
|-----------0------|-2------------|
|-------0----------|---------4-6--|
|------------------|-----4--------|
|-(3)-3---3--------|---2---2------|
  +E  E E E          E E E E E E


  Q    Q.     E   H       E E   E  E E E E  E   E E E E E E   E E E E E E
|-9---12------9-|-7-------7-9-|-7-------------|---2---2---2-|---2---2---2--|
|------9--------|-6-----------|---10-9-7-6\-2-|---2---2---2-|---0---0---0--|
|---------------|-----------6-|----------4\-1-|-------------|--------------|
|-7---11-----11-|-----6---6---|---------------|-------------|--------------|
|---9------9----|---8---8-----|------8--------|-----------0-|-2-------2-4--|
|---------------|-------------|-9-------------|-2-2-0---2---|--------------|
  E E  Q   E  E   E E E E E E   E  E E E        E E Q   E E   H       E E


                                                             |
  E E E E Q    Q   H      E E E E E E   E E E E E  E    E  E E       E  Q
|-2---4---0--|-2---2----|---9---9---9-|---7---7----7-|-10----9----------0-----|
|-3---2---0--|-2---2----|---7---7---7-|---7---7----7-|-------9---------12-----|
|------------|-4---2----|-------------|--------------|-11---------------------|
|-----2------|-4--------|-----------7-|-9-------9-11-|--9-11-9-11-9-----------|
|-2-4-----4--|----------|-9-9-7---9---|--------------|--------------12-11-12--|
|------------|----------|-------------|--------------|------------------------|
  E E Q   Q    H.         E E Q   E S   H       E  E    E  E S  S S  E  E  E
                                                             |-3--|


  Q    E E Q    +H.
|------9---2--|-(2)------*|----|
|-----10---2--|-(2)------*|----|
|-----11---2--|-(2)------*|----|
|-----11---4--|-(4)------*|----|
|-9--------4--|-(4)------*|----|
|----------2--|-(2)------*|----|
  E E  Q

Sorry, I got a little carried away with the last half and made it 
really tough to play...but it does sound cool!  Maybe I'll come
back to it in the future (when I have more time) and make it 
more playable.
Login or Register to remove this ad.