Go Go Buriki King! (Live A Live) Guitar Tab

Submitted: Oct 03, 2007 by daniellu14

5
Average: 5 (7 votes)
Download | Listen
Game: Live A Live
Composer(s): Yoko Shimomura
Style: Transcription

AutoScroll: Slow | Medium | Fast
Go Go Buriki King!- Live a Live

Composer: Yoko Shimomoura

Year:1994

e-----------------------2------0--0--------
B--------0--0-0----3--0---------------2----0
G---0-2--------------------------------2---
D--4------------------------------------
A---------------------------------------
E---------------------------------------

e--------------2----0--0--0-5--2
B-0--0-0---3-0------------------
G-------------------------------
D-------------------------------
A-------------------------------
E-------------------------------

e------------0--------------0--2-----
B-3--2---2-3----3-2---3-2-3----------
G------2------------2----------------
D------------------------------------
A------------------------------------
E------------------------------------

e-1----1-2--4--1--4--7--6---
B----2----------------------
G---------------------------
D---------------------------
A---------------------------
E---------------------------

e----------5-7-----5-7-----------------
B-----5-7---------7--------5--7-8--5--7
G-6-7----------------------------------
D--------------------------------------
A--------------------------------------
E--------------------------------------

e----------5-7-----5-7------------9--7-
B-----5-7---------7--------7---7-------
G-6-7----------------------------------
D--------------------------------------
A--------------------------------------
E--------------------------------------

Feel free to slide on some notes near the end of the song. It makes the song
sound a little better in my opinion.
Login or Register to remove this ad.

2 comments on Go Go Buriki King!

Yes! The memories are

Yes! The memories are comming back in a flash, nicely done.

Epicly done.

Epicly done.