Ads

Title Screen (Legend of Zelda: A Link to the Past) Guitar Tab

Submitted: Jun 07, 2008 by Zelos (Last updated: Jun 07, 2008)

5
Average: 5 (3 votes)
Download | Listen
Game: Legend of Zelda: A Link to the Past
Composer(s): Koji Kondo
Style: 2 or more instruments, Arrangement
Series: Legend of Zelda

AutoScroll: Slow | Medium | Fast
Guitar I
BPM = 120  
Difficulty: Easy


     W                   W                   W                 
E||-------------------|-------------------|-------------------|
B||-------------------|-------------------|-------------------|
G||-------------------|-------------------|-------------------|
D||-------------------|-------------------|-------------------|
A||-------------------|-------------------|-------------------|
E||-------------------|-------------------|-------------------|


  Q.     S S  Q    S S S S    S  S S S S S S S  Q    S S S S  
---------------------------|---------------------------------|
-----------9-11----L---9---|--9-11-9---9---9---11----L---9---|
---------8---------------8-|---------8---8-----------------8-|
---------------------------|---------------------------------|
---------------------------|---------------------------------|
---------------------------|---------------------------------|


  S  S S S S S S S  Q.     S S    E.  T T E  T T T T H         
-------------------------------|--9---L---9--L---8-6-8--------|
--9-11-9---9---9---11------L---|------------------------------|
---------8---8-----------------|------------------------------|
-------------------------------|------------------------------|
-------------------------------|------------------------------|
-------------------------------|------------------------------|


  Q    S T T S S  Q    S S S S    S  S S S S S S S  Q    S S S S  
-------------------------------|---------------------------------|
---------------9-11----L---9---|--9-11-9---9---9---11----L---9---|
-------8-----8---------------8-|---------8---8-----------------8-|
-------------------------------|---------------------------------|
-------------------------------|---------------------------------|
-------------------------------|---------------------------------|


  S  S S S S S S S  Q.     S S    E.  T T E  T T T T H         
-------------------------------|--9---L---9--L---8-6-8--------|
--9-11-9---9---9---11------L---|------------------------------|
---------8---8-----------------|------------------------------|
-------------------------------|------------------------------|
-------------------------------|------------------------------|
-------------------------------|------------------------------|


-----------||
-----------||
-----------||
-----------||
-----------||
-----------||




Duration Legend
---------------
W - whole
H - half
Q - quarter
E - 8th
S - 16th
T - 32nd
. - note dotted


Tablature Legend
----------------
L - tied note












---------------------------------------------------------------
---------------------------------------------------------------
---------------------------------------------------------------










Guitar II
BPM = 120  
Difficulty: Easy


     W                   W                   W                 
E||-------------------|-------------------|-------------------|
B||-------------------|-------------------|-------------------|
G||-------------------|-------------------|-------------------|
D||-------------------|-------------------|-------------------|
A||-------------------|-------------------|-------------------|
E||-------------------|-------------------|-------------------|


  Q    Q    S S T T T T E.  T T    S S S S Q    S S T T T T E.  T T  
--------------------------------|-----------------------------------|
--------------------------------|-----------------------------------|
--------------------------------|-----------------------------------|
--------------------------------|----------4----L---4-4-4-4-4---L---|
-------6----L---6-6-6-6-6---L---|--6---6---2----L---2-2-2-2-2---L---|
-------4----L---4-4-4-4-4---L---|--4---4----------------------------|


  S S S S Q    S S T T T T E.  T T    S S S S Q    S S T T T T E.  T T  
-----------------------------------|-----------------------------------|
-----------------------------------|-----------------------------------|
-----------------------------------|-----------------------------------|
--4---4---6----L---6-6-6-6-6---L---|--6---6----------------------------|
--2---2---4----L---4-4-4-4-4---L---|--4---4---6----L---6-6-6-6-6---L---|
-----------------------------------|----------4----L---4-4-4-4-4---L---|


  Q    Q    S S T T T T E.  T T    S S S S Q    S S T T T T E.  T T  
--------------------------------|-----------------------------------|
--------------------------------|-----------------------------------|
--------------------------------|-----------------------------------|
--------------------------------|----------4----L---4-4-4-4-4---L---|
-------6----L---6-6-6-6-6---L---|--6---6---2----L---2-2-2-2-2---L---|
-------4----L---4-4-4-4-4---L---|--4---4----------------------------|


  S S S S Q    S S T T T T E.  T T    S S S S Q    S S T T T T Q     
-----------------------------------|--------------------------------|
-----------------------------------|--------------------------------|
-----------------------------------|----------8----L---6-6-6-6-8----|
--4---4---6----L---6-6-6-6-6---L---|--6---6---6----L---4-4-4-4-6----|
--2---2---4----L---4-4-4-4-4---L---|--4---4-------------------------|
-----------------------------------|--------------------------------|


  W                  
-------------------||
-------------------||
-------------------||
-------------------||
-------------------||
-------------------||




Duration Legend
---------------
W - whole
H - half
Q - quarter
E - 8th
S - 16th
T - 32nd
. - note dotted


Tablature Legend
----------------
L - tied note
Login or Register to remove this ad.

2 comments on Title Screen

nice tab *thumbs up*

5

nice tab *thumbs up*

good tab, but missing the

good tab, but missing the best part! - the harp intro