Ads

Overworld (Legend of Zelda: A Link to the Past) Guitar Tab

Submitted: Sep 16, 2008 by TrangOul (Last updated: Sep 19, 2009)

4.733335
Average: 4.7 (15 votes)
Download | Listen
Game: Legend of Zelda: A Link to the Past
Composer(s): Koji Kondo
Style: Arrangement, Fingerstyle
Series: Legend of Zelda

AutoScroll: Slow | Medium | Fast
'Overworld'
from 'The Legend of Zelda: A Link to the Past'                             
Originally composed by Koji Kondo
Arranged by Marcus Kasperski

Standard Tuning (EADGBE) | Capo 1

Allegro

          |--3--|        |--3--|     |--3-|  |--3--|        |--3--|   
     Q    E  E  E  E  E  E  E  E     Q    E  E  E  E  E  E  E  E  E   
E||-------------------------------|----------------------------------|
B||-------------------------------|----------------------------------|
G||--2----------------2--2--2--2--|--2----0--2-----------2--2--2--2--|
D||--2-------------------2--------|--0-------0--------------0--------|
A||--0----0--0--0--0-----0--------|----------------------------------|
E||-------------------------------|--3-------3--3--3--3-----3--------|


  |--3-|  |--3--|         |--3--|                                 
  Q    E  E  E  E  E  S S E  E  E     E  S S E  S S E  S S E  E   
-----------------------------------|-----------------------------|
-----------------------------------|-----------------------------|
--2----0--2-----------2-2-2--2--2--|--2--------------------------|
-----------------------------------|--2--2-2-2--2-2-2--2-2-2--2--|
--3-----------------------3--------|---------1------2------------|
--1-------1--1--1--1------1--------|--0------0------0------2--4--|

Segno
       |--3--|                        |--3--|        |--3--|   
  Q    E  E  E  E  E  S S S S    Q    E  E  E  E  E  E  E  E   
------------------------------|--0----------------0--0--1--3--|
------------------------0-2-3-|--0-------------------0--------|
--2----------------2--2-------|-------------------------------|
-------2----------------------|-------------------------------|
--0----0--0-----0-----0-------|-------------------------------|
-------------3----------------|--3----3--3--1--3-----3--------|


       |--3--|         |--3--|           |--3--|             
  Q    E  E  E  E  S S E  E  E     E.  S E  E  E  Q    Q     
--5----------------5-5-5--3-----|--3---1-0-------------0----|
-----------------------------6--|---------------------------|
--5--------------------5--------|--0------------------------|
--3----3--3--2--3------3--------|---------------------------|
--------------------------------|--3-----3--3--2--3----3----|
--------------------------------|---------------------------|


         |--3--|                       |--3--|              
  E  S S E  E  E  Q    E  E     E  S S E  E  E  Q    E  E   
-------0-1-------------0-----|---------0-------------------|
--3--3--------------------3--|--1--1-3---------------3--1--|
-----------------------------|-----------------------------|
-----------------------------|-----------------------------|
--1------1--1--0--1----1-----|--0------0--0-----0----0-----|
-----------------------------|---------------3-------------|


         |--3--|                                           
  E  S S E  E  E  Q    Q       E  S S E  S S E  S S E  E   
-----------------------2----|--0--------------------------|
--0--0-2-4------------------|-----------------------------|
-----------------------2----|--1--------------------------|
---------4--4--2--4---------|-----2-2-2--2-2-2--2-2-2--2--|
--2-------------------------|-----------------------------|
----------------------------|--0------0------0------2--4--|


       |--3--|                        |--3--|        |--3--|   
  Q    E  E  E  E  E  S S S S    Q    E  E  E  E  E  E  E  E   
------------------------------|--0----------------0--0--1--3--|
------------------------0-2-3-|--0-------------------0--------|
--2----------------2--2-------|-------------------------------|
-------2----------------------|-------------------------------|
--0----0--0-----0-----0-------|-------------------------------|
-------------3----------------|--3----3--3--1--3-----3--------|


       |--3--|                    |--3--|             
  Q    E  E  E  Q    Q       Q    E  E  E  Q    Q     
--5------------------8----|--7----4-------------0----|
---------------------7----|--5----5------------------|
--5-----------------------|--------------------------|
--3----3--3--2--3----7----|--6----6--6--6--6---------|
--------------------------|--------------------------|
--------------------------|--------------------------|


  |--3--|  |--3--|                    |--3--|        Da Coda     
  E  E  E  E  E  E  Q    Q       Q    E  E  E  Q    Q     
--1----------------------5----|--4----0--0--0--0----0----|
--1--------------1--4----4----|--3----0--0--0--0---------|
--2-----------2---------------|--4----1--1--1--1---------|
--3--------3------------------|--------------------------|
-----0--3---------------------|--------------------------|
------------------------------|--0----0--------0---------|


  |--3--|  |--3--|                    |--3--|             
  E  E  E  E  E  E  Q    Q       Q    E  E  E  Q    Q     
--1----------------------5----|--4----0--0--0--0---------|
--1--------------1--4----4----|--3----0--0--0--0----2----|
--2-----------2---------------|--4----1--1--1--1---------|
--3--------3------------------|--------------------------|
-----0--3---------------------|--------------------------|
------------------------------|--0----0--------0---------|


       |--3--|                    |--3--|             
  Q    E  E  E  Q    Q       Q    E  E  E  Q    Q     
---------------------1----|--0-----------------------|
--3-----------------------|-------1------------------|
--------------------------|---------------------2----|
--------------------------|--------------------------|
--1----1--1--0--1----1----|--0----0--0-----0----0----|
--------------------------|-------------3------------|


         |--3--|                                Da Segno al Coda       
  E  S S E  E  E  Q    Q       E  S S E  S S E  S S E  E         
-----------------------2----|--0--------------------------|-----|
--0--0-2-4------------------|-----------------------------|-----|
-----------------------2----|--1--------------------------|-----|
---------4--4--2--4---------|-----2-2-2--2-2-2--2-2-2--2--|-----|
--2-------------------------|-----------------------------|-----|
----------------------------|--0------0------0------2--4--|-----|

Coda
  |--3--|  |--3--|                |--3--|  |--3--|              
  E  E  E  E  E  E  Q.     S S    E  E  E  E  E  E  Q.     S S  
--1-----------------1------1-1-|--3-----------------3------3-3-|
--1--------------1--1------1-1-|--3--------------3--3------3-3-|
--2-----------2-----2------2-2-|--4-----------4-----4------4-4-|
--3--------3--------3------3-3-|--5--------5--------5------5-5-|
-----0--3----------------------|-----2--5----------------------|
-------------------------------|-------------------------------|


  H        Q.     S S    W                  
--5-------------------|-------------------||
--5-------------------|-------------------||
--6--------2------2-2-|--2----------------||
-----------2------2-2-|--2----------------||
--0--------0------0-0-|--0----------------||
----------------------|-------------------||
Login or Register to remove this ad.

16 comments on Overworld

Awesome tab good work!

Awesome tab good work!

Nice

Now I'll have to buy a damn capo thing for my guitar. I hate you. Stupid good tab that makes me wanna buy a stupid capo thingy...

Haha this is pretty similar

Haha this is pretty similar to Kabikibear's arrangement for The Legendary Hero except for the ending, the capo, and a few slight differences... just saying

Pathetic

1

you stole this right out of Kabukibear's Legendary Hero tab, spend some time and make your own!

o_O

o_O

When I submitted this one I

When I submitted this one I mentioned that it's pretty much based on said arrangement. Obviously nobody did mind and it was accepted.
No need to go through the roof. >_>

I think that you are

I think that you are mistaken, Doc Frog, and you seem to have embarrassingly jumped to a silly conclusion without taking into account anything other than what your own mind has already made up.

There are differences in timing notation and actual notes. Arrangements that stick close to the original composition can oftentimes be very similar. There are more than enough differences that I can see from just glancing at this tab to show that (at least in my mind) Trangoul did not steal it. Possibly based on it.

Trangoul is a great guitarist and a great arranger. He is very knowledgeable about music and does not need to steal from Kabuki. In fact, they are pretty good friends and get along quite well from what I've seen when we have all talked in IRC together. I've talked with both of them at the same time on a semi-regular basis in the past, and based on that and what I know about them, I think you do them both a disservice when you make a comment in this manner.

EDIT: Apparently I didn't see Trangoul's response, but he pretty much confirms that this IS based on Kabuki's arrangement. That is a big difference from stealing.

It's a good arrangement. We

It's a good arrangement. We should all five-whore it. Er, five-star it.

I did my part!

I did my part!

EDIT: Meaning I rated it.

Go on AIM/MSN/whatever, you

Go on AIM/MSN/whatever, you jerk.

and still be online when i

and still be online when i wake up, bastard!

Nate's never online

Nate's never online anymore...

why does he hate us :(

why does he hate us :(

I saw him online yesterday

I saw him online yesterday for like 4 minutes :<

Naters gonna nate

Naters gonna nate

I like it! Preeeetty epic

5

I like it! Preeeetty epic imo.

The argument in the comments section I mean. The tab's okay too. ;-)