Spring Theme (Harvest Moon) Guitar Tab

Submitted: May 13, 2008 by ness (Last updated: May 13, 2008)

4.5
Average: 4.5 (2 votes)
Download | Listen
Game: Harvest Moon
Composer(s): Tanaka Tuyoshi
Style: Transcription
Series: Harvest Moon

AutoScroll: Slow | Medium | Fast
                Harvest Moon: Spring Theme



E||--------------------0-----------------------------------------|
B||0-----1-3-------------1-3-0-----0-----1-3--------1-0-1-3------|
G||--------------0---------------------------0-------------------|
D||--------------------------------------------------------------|
A||--------------------------------------------------------------|
E||--------------------------------------------------------------|

E||--------------------0-----------------------------------------|
B||0-----1-3-------------1-3-0-----0-----1-3--------1-0----------|
G||--------------0---------------------------0----------2-0------|
D||--------------------------------------------------------------|
A||--------------------------------------------------------------|
E||--------------------------------------------------------------|


E||------------------------------------------------------------------|
B||------------------------------------------------------------------|
G||------------------------------------------------------------------|
D||0----0---0-------------0-----0----------------0-----0---0---------|
A||-0-0---0---2-------------0-0---0-3-2------------0-0---0---2-------|
E||-----------------3----------------------3----------------------3--|



E||--------------------------------------------------------------|
B||--------------------------------------------------------------|
G||--------------------------------------------------------------|
D||0----0--------------------------------------------------------|
A||-0-0---0---0-3-5-10-------------------------------------------|
E||---------3----------------------------------------------------|
                                  Repeat All
Login or Register to remove this ad.