Ads

Versus Screen (Gundam Wing: Endless Duel) Guitar Tab

Submitted: Jan 29, 2008 by Zero (Last updated: Jan 29, 2008)

0
Download | Listen
Game: Gundam Wing: Endless Duel
Composer(s): Hiroyuki Iwatsuki, Haruo Ohashi
Style: Transcription

AutoScroll: Slow | Medium | Fast
Gundam Wing: Endless Duel
V.S Screen - Player v.s. Player



e----------------16-----16---16-18-19--18-19---19-21-23----]
b----------17-19-----19------------------------------------]
g-20-18-20-------------------------------------------------]
d----------------------------------------------------------]
a----------------------------------------------------------]
e----------------------------------------------------------]


e--23-23-23-23------------------------------]
b-------------------------------------------]
g-------------------------------------------]
d-------------------------------------------]
a-------------------------------------------]
e-------------------------------------------]



e-19-----19-21-23-21-19-21-19----19------------------------]   
b-----23----------------------23---------------------------]
g----------------------------------------------------------]
d----------------------------------------------------------]
a----------------------------------------------------------]
e----------------------------------------------------------]




e----19-----19-21-23-21-19-21-19----19---------------------]   X2
b-23-----23----------------------23------------------------]
g----------------------------------------------------------]
d----------------------------------------------------------]
a----------------------------------------------------------]
e----------------------------------------------------------]




e----19-----19-21-23-21-19-21----19------------------------]
b-23-----23-------------------23---------------------------]
g----------------------------------------------------------]
d----------------------------------------------------------]
a----------------------------------------------------------]
e----------------------------------------------------------]




e-19----19-----19-21-23-21-19-21-19----19------------------]
b----23-----23----------------------23---------------------]
g----------------------------------------------------------]
d----------------------------------------------------------]
a----------------------------------------------------------]
e----------------------------------------------------------]




e----19-----19-21-23-21-19-21-19----19---------------------]  X2
b-23-----23----------------------23------------------------]
g----------------------------------------------------------]
d----------------------------------------------------------]
a----------------------------------------------------------]
e----------------------------------------------------------]




e----19-----19-21-23-21-19-21------------------------------]
b-23-----23-------------------23---------------------------]
g----------------------------------------------------------]
d----------------------------------------------------------]
a----------------------------------------------------------]
e----------------------------------------------------------]


Repeat
Ya, I know it's kinda weird to read, but it is correct.
Login or Register to remove this ad.