Slam Shuffle (Final Fantasy VI) Guitar Tab

Submitted: Jan 10, 2009 by laoise (Last updated: May 30, 2010)

5
Average: 5 (4 votes)
Download | Listen
Game: Final Fantasy VI
Composer(s): Nobuo Uematsu
Style: Arrangement, Fingerstyle
Series: Final Fantasy

AutoScroll: Slow | Medium | Fast
Slam Shuffle - Final Fantasy 6 
Arranged By Laoise Earle 

Bpm = 113

     E  E  E  E  E  E  E  E     E  E  E  E  E  E  E  E   
E||--------------------------|--------------------------|
B||--------------------------|--------------------------|
G||--------------------------|--------------------------|
D||--2--2--------2--2--1--2--|--2--2--------2--2--1--2--|
A||--0--0--3--2--0--0--------|--0--0--3--2--0--0--------|
E||--------------------------|--------------------------|


  E  E  E  E  E  E  E  E     E  E  E  E  E  E  E  E       Q    Q    Q.     E   
--------------------------|--------------------------||--------5--------------|
--------------------------|--------------------------||-------------4------5--|
--------------------------|--------------------------||*--2-------------------|
--2--2--------2--2--1--2--|--2--2--------2--2--1--2--||*----------------------|
--0--0--3--2--0--0--------|--0--0--3--2--0--0--------||---0---------0------4--|
--------------------------|--------------------------||-----------------------|


                    |--3--|                                                    
  E  E  E  E  E  E  E  E  E     Q    E  E  Q    E  E     E  E  E  E  H         
--2--0--2--3-----------------|------------------------|--------------0--------|
--------------7--5--4--1--0--|----------4--5----------|--------1--4-----------|
-----------------------------|--2------------------1--|--2--4-----------------|
-----------------------------|------------------------|-----------------------|
--0--------4--0--------------|--0-------4--0----------|--0--------4--0--------|
-----------------------------|---------------------3--|-----------------------|


                                           |--3--|                            
  Q    Q    Q.     E     E  E  E  E  E  E  E  E  E     Q    E  E  Q    E  E   
-------5--------------|--2--0--2--3--2--0-----------|------------------------|
------------4------5--|--------------------4--1--0--|------------------------|
--2-------------------|-----------------------------|--2-------4--5-------1--|
----------------------|-----------------------------|------------------------|
--0---------0------4--|--0--------4--0--------------|--0-------4--0----------|
----------------------|-----------------------------|---------------------3--|


                                                                   |--3--|   
  E  E  E  E  H           Q    Q    Q.     E     E  E  E  E  E  E  E  E  E   
-----------------------|-------8--------------|--5--3--5--6--5--3--2--------|
--------1--------------|------------7------8--|-----------------------4--3--|
--2--4-----4--2--------|--5-------------------|-----------------------------|
-----------------------|----------------------|-----------------------------|
--0--------4--0--------|--3---------0---------|--3-----------3--------------|
-----------------------|-------------------8--|-----------7-----------------|


  Q    E  E  Q    E  E     E  E  E  E  H           Q    Q    Q.     E   
----------2--3----------|-----------2--3--------|-------5--------------|
--1---------------------|--1--3--4--------------|------------4------5--|
---------------------4--|-----------------------|--2-------------------|
------------------------|-----------------------|----------------------|
--3-------2--3-------2--|--3--------2--3--------|--0---------0------4--|
------------------------|-----------------------|----------------------|


                    |--3--|                                                    
  E  E  E  E  E  E  E  E  E     Q    E  E  Q    E  E     E  E  E  E  H         
--2--0--2--3--2--0-----------|------------------------|-----------------------|
--------------------4--1--0--|----------0--1----------|-----0--1--0-----------|
-----------------------------|--2------------------1--|--2-----------2--------|
-----------------------------|------------------------|-----------------------|
--0--------4--0--------------|--0-------4--0----------|--0--------4--0--------|
-----------------------------|---------------------3--|-----------------------|


  E  E  E  E  E  E  E  E     E  E  E  E  E  E  E  E   
--------------------------|--------------------------|
--------------------------|--------------------------|
--------2--0--1-----------|--2--0--1-----------------|
--------4-----0--2-----2--|--4-----0--2-----2-----2--|
--2--2--------------------|--------------------------|
--0--0--0--0--0--0--0--0--|--0--0--0--0--0--0--0--0--|


  E  E  E  E  E  E  E  E     E  E  E  E  E  E  E  E   
--------------------------|--------------------------|
--------------------------|--------------------------|
--------2--0--1-----------|--2--0--1-----------------|
--------4-----0--2-----2--|--4-----0--2-----2-----2--|
--2--2--------------------|--------------------------|
--0--0--0--0--0--0--0--0--|--0--0--0--0--0--0--0--0--|


  E  E  E  E  E  E  E  E     E  E  E  E  E  E  E  E   
--------------------------|--------------------------|
--------3--1--2-----------|--3--1--2-----------------|
--------4-----0--2-----2--|--4-----0--2-----2-----2--|
--2--2--------------------|--------------------------|
--0--0--0--0--0--0--0--0--|--0--0--0--0--0--0--0--0--|
--------------------------|--------------------------|


                             |--3--|  |--3--|            
  E  E  E  E  E  E  E  E     E  E  E  E  E  E  H         
--------------------------|-----------------------------|
--------3--1--2-----------|-----------------------------|
--------4-----0--2-----2--|--2--0-----------------------|
--2--2--------------------|--------2--1--0--------------|
--0--0--0--0--0--0--0--0--|-----------------4--3--------|
--------------------------|-----------------------------|


                |--3--|                            
  H        Q    E  E  E     E  H        Q    E     
-------------------------|-----------------------||
-------------------------|-----------------------||
-------------------------|----------------------*||
-------------------------|----------------------*||
----------------3--2--1--|--0--------------------||
-------------------------|-----------------------||




Duration Legend
---------------
W - whole
H - half
Q - quarter
E - 8th
S - 16th
Login or Register to remove this ad.

2 comments on Slam Shuffle

whats up with people tabbing

whats up with people tabbing up on the 22nd fret? wouldnt it be much easier for everyone if the note is moved to the next highest string? too many joe satrianis jerking off with guitars.
nice tab

Lmao

I Know, God Knows What I Was Thinking When I Made This Tab D:
Im Fixing All My Tabs To Make Them At Least Playable, And This One Is At The Top Of The List (: