Ads

Shadow (Final Fantasy VI) Guitar Tab

Submitted: Jun 07, 2008 by Juja (Last updated: Oct 18, 2009)

5
Average: 5 (3 votes)
Download | Listen
Game: Final Fantasy VI
Composer(s): Nobuo Uematsu
Style: 2 or more instruments, Transcription
Series: Final Fantasy

AutoScroll: Slow | Medium | Fast
Game: Final Fantasy VI
Song: "Shadow's Theme"
Composed by: Nobuo Uematsu
Tabbed by: Not So Great Juja (Paul Horses)

Key:
~ = vibrato
p = pull-off
h = hammer-on
b = bend
/ = slide
pm = palm-mute
tr = tremolo picking

You'll have to be in drop D for this song.

This is the bass and rhythm chords tabbed together.


e|-0-----0-----0-----0-----0-----0-----0-----0-| 
B|-0-----0-----0-----0-----0-----0-----0-----0-| 
G|-0-----0-----0-----0-----0-----0-----0-----0-| 
D|-2-------2-2-2--------0--2-------2-2-2-------| 
A|-------------------2-------------------------| 
D|---------------------------------------------| 


e|-0-----0-----3-----2-----0-----0-----0-----0-| 
B|-0-----0-----5-----3-----0-----0-----0-----0-| 
G|-0-----0-----5-----4-----0-----0-----0-----0-| 
D|-2-------2-4-5-----4--0--2---------2-2-------| 
A|-----------------3-2-------------------------| 
D|---------------------------------------------| 


e|-0-----0-----3-----2-----0-----0-----0-----0----| 
B|-0-----0-----5-----3-----0-----0-----0-----0----| 
G|-0-----0-----5-----4-----0-----0-----0-----0----| 
D|-2-------2-0-----5-4-----2---------2-2----------| 
A|-------------3--------2------------------5-4-0-2| 
D|------------------------------------------------| 


e|-3-----3-----0-----0-----3-----2-----2-----2----| 
B|-3-----3-----2-----2-----3-----2-----4-----4----| 
G|-0-----0-----2-----2-----0-----2-----4-----4----| 
D|------------------------------------------------| 
A|-------------0--------0------------0-2----------| 
D|-5-------5-6-------------5--5--4-----------4--4-| 


e|-0-----0-----3-----2-----0-----0-----0-----0-| 
B|-0-----0-----5-----3-----0-----0-----0-----0-| 
G|-0-----0-----5-----4-----0-----0-----0-----0-| 
D|-------------------4-------------------------| 
A|-------2--2--3-----2-------------5-4-2-------| 
D|-2--2----------------4-0-2-------------------| 

It just repeats from the beginning after this.

Here's a tab for the lead part of the song.
It should be an octave higher, but I'm playing on
an acoustic guitar and I don't have enough frets.

e|------------------------------------| 
B|---12----12-10----------------------| 
G|-9-------------12-11-9-11-12----9---| 
D|-----------------------------12-----| 
A|------------------------------------| 
E|------------------------------------| 


e|------------------------------------| 
B|---12----12-10----------------------| 
G|-9-------------12-11-9-11------9----| 
D|--------------------------9-12------| 
A|------------------------------------| 
E|------------------------------------| 


e|-7-10----7-9-10-9----10-9-7-9------7-| 
B|------------------------------7-10---| 
G|-------------------------------------| 
D|-------------------------------------| 
A|-------------------------------------| 
E|-------------------------------------| 


e|------------------------------------| 
B|---12----12-10----------------------| 
G|-9-------------12-11-9-11-12----9---| 
D|-----------------------------12-----| 
A|------------------------------------| 
E|------------------------------------| 
Login or Register to remove this ad.