Shadow (Final Fantasy VI) Guitar Tab

Submitted: Jan 11, 2009 by TheDoomOfAllFires (Last updated: Dec 30, 2009)

5
Average: 5 (8 votes)
Download | Listen
Game: Final Fantasy VI
Composer(s): Nobuo Uematsu
Style: Arrangement, Fingerstyle
Series: Final Fantasy

AutoScroll: Slow | Medium | Fast
Final Fantasy VI - Shadow's Theme
Arranged by TheDoomOfAllFires; 01/09/2009

Standard Tuning


Bpm=105                    Bpm=95
      H        H         4x  E  E  E  E  E  E     E  E  E  E  E  E   
E||---0--------0---------||--7--------7-----5--|--3--2--0--2--3-----|
B||---0--------0---------||--8-----------------|--5--------3-----3--|
G||*--0--------0--------*||--------0-----------|--------0--------0--|
D||*--2--------2--------*||-----------9--------|--------------------|
A||---2--------2---------||-----7--------------|--3--------2--------|
E||---0--------0---------||--0-----------0-----|--------------------|


  E  E  E  E  E  E     E  E  E  E  E  E     E  E  E  E  E  E   
--0-----------------|-----------------0--|--7--------7-----5--|
--0--------------0--|--------------------|--8-----------------|
--------------0-----|--------------0-----|--------0-----------|
--------2--4--------|--------2--4--------|-----------9--------|
-----2--------------|-----2--------------|-----7--------------|
--0-----------------|--0-----------------|--0-----------0-----|


  E  E  E  E  E  E     E  E  E  E  E  E     E  E  E  E  E  E   
--3--2--0--2--------|--0-----------------|-----------------7--|
--5--------3--0--3--|-----------------0--|--------------------|
--------0-----------|--------------0-----|--------------0-----|
-----------------0--|--------2--4--------|--------2--4--------|
--3--------2--------|-----2--------------|-----2--------------|
--------------------|--0-----------------|--0-----------------|


   E  E  E  E  S S  E     E  E  E  E  E  E      E  E  E  E  E   E   
--10-----------7-9-10--|--9-----------------|--10--9--7--9---------|
------------8----------|--------7-----------|---------------7--10--|
---------7-------------|-----------6--------|----------------------|
------9----------------|-----7--------7-----|----------------------|
--10-------------------|--9--------------9--|--10--------9---------|
-----------------------|--------------------|----------------------|


  E  E  E  E  E  E     E  E  E  E  E  E     E  E  E  E  E  E   
--7--------------0--|--7--------7-----5--|--3--2--0--2--3-----|
--------------7-----|--8-----------------|--5--------3-----3--|
-----------8--------|--------0-----------|--------0--------0--|
--9-----9-----------|-----------9--------|--------------------|
-----9--------------|-----7--------------|--3--------2--------|
--7-----------------|--0-----------0-----|--------------------|

                                           Bpm=105
                                              ^        ^           
  E  E  E  E  E  E     E  E  E  E  E  E       H        H         4x
--0-----------------|-----------------0--||---0--------0---------||
--0--------------0--|--------------------||---0--------0---------||
--------------0-----|--------------0-----||*--0--------0--------*||
--------2--4--------|--------2--4--------||*--2--------2--------*||
-----2--------------|-----2--------------||---2--------2---------||
--0-----------------|--0-----------------||---0--------0---------||

Bpm=95
  E  E  E  E  E  E     E  E  E  E  E  E     E  E  E  E  E  E   
--7--------7-----5--|--3--2--0--2--3-----|--0-----------------|
--8-----------------|--5--------3-----3--|--0--------------0--|
--------0-----------|--------0--------0--|--------------0-----|
-----------9--------|--------------------|--------2--4--------|
-----7--------------|--3--------2--------|-----2--------------|
--0-----------0-----|--------------------|--0-----------------|


  E  E  E  E  E  E     E  E  E  E  E  E     E  E  E  E  E  E   
-----------------0--|--7--------7-----5--|--3--2--0--2--------|
--------------------|--8-----------------|--5--------3--0--3--|
--------------0-----|--------0-----------|--------0-----------|
--------2--4--------|-----------9--------|-----------------0--|
-----2--------------|-----7--------------|--3--------2--------|
--0-----------------|--0-----------0-----|--------------------|


  E  E  E  E  E  E     E  E  E  E  E  E      E  E  E  E  S S  E   
--0-----------------|-----------------7--|--10-----------7-9-10--|
-----------------0--|--------------------|------------8----------|
--------------0-----|--------------0-----|---------7-------------|
--------2--4--------|--------2--4--------|------9----------------|
-----2--------------|-----2--------------|--10-------------------|
--0-----------------|--0-----------------|-----------------------|


  E  E  E  E  E  E      E  E  E  E  E   E     E  E  E  E  E  E   
--9-----------------|--10--9--7--9---------|--7--------------0--|
--------7-----------|---------------7--10--|--------------7-----|
-----------6--------|----------------------|-----------8--------|
-----7--------7-----|----------------------|--9-----9-----------|
--9--------------9--|--10--------9---------|-----9--------------|
--------------------|----------------------|--7-----------------|


  E  E  E  E  E  E     E  E  E  E  E  E     E  E  E  E  E  E   
--7--------7-----5--|--3--2--0--2--3-----|--0-----------------|
--8-----------------|--5--------3-----3--|--0--------------0--|
--------0-----------|--------0--------0--|--------------0-----|
-----------9--------|--------------------|--------2--4--------|
-----7--------------|--3--------2--------|-----2--------------|
--0-----------0-----|--------------------|--0-----------------|


                       ^              
  E  E  E  E  E  E     H.             
-----------------0--|--0------------||
--------------------|--0------------||
--------------0-----|--0------------||
--------2--4--------|--2------------||
-----2--------------|--2------------||
--0-----------------|--0------------||
Login or Register to remove this ad.

2 comments on Shadow

Woaah That's Amazing.

5

Woaah
That's Amazing.

you really like making songs

you really like making songs unnecesarily (did i spell that right?) complicated