Mt. Koltz (Final Fantasy VI) Bass Tab

Submitted: Oct 04, 2008 by auriplane (Last updated: Oct 23, 2008)

0
Download | Listen
Game: Final Fantasy VI
Composer(s): Nobuo Uematsu
Style: Transcription
Series: Final Fantasy

AutoScroll: Slow | Medium | Fast
                    Final Fantasy VI - Mt Koltz BASS TAB
                           Song by Nobuo Uematsu

                  Tabbed by auriplane ([email protected])


The rhythm pattern for most of the song is "long short", a full
quarter note followed by a very short (stacatto) note.  I put a
dot below the stacatto notes.  Should be obvious once you listen
for it.

Four-string bass, standard tuning.


G |--------|--------|--------|--------|
D |--------|--------|--------|--------|
A |000-0-00|0-00000-|000-0-00|0-00000-|
E |--------|--------|--------|--------|

    Repeat 2x:

G |--------|--------|--------|--------|
D |--------|--------|--------|--------|
A |--------|--------|--------|--------|
E |4-4-4-4-|4-4-4-4-|4-4-4-4-|4-4-4-4-|
     .   .    .   .    .   .    .   .
G |--------|--------|--------|--------|
D |--------|--------|--------|--------|
A |--------|--------|--------|--------|
E |3-3-3-3-|3-3-3-3-|3-3-3-3-|3-3-3-3-|
     .   .    .   .    .   .    .   .

    No repeat:

G |--------|--------|--------|--------|
D |--------|--------|--------|--------|
A |--------|--------|--------|--------|
E |4-4-4-4-|4-4-4-4-|4-4-4-4-|4-4-4-4-|
     .   .    .   .    .   .    .   .
G |--------|--------|--------|--------|
D |--------|--------|--------|--------|
A |--------|--------|--------|1-1-4-4-|
E |2-2-2-2-|2-2-2-2-|2-2-4-4-|--------|
     .   .    .   .    .   .    .   .
G |--------|--------|--------|--------|
D |--------|--------|--------|--------|
A |3-3-3-3-|3-3-3-3-|3-3-3-3-|3-3-3-3-|
E |--------|--------|--------|--------|
     .   .    .   .    .   .    .   .
G |--------|--------|--------|--------|
D |--------|--------|--------|--------|
A |1-1-1-1-|1-1-1-1-|1-1-1-1-|1-1-1-1-|
E |--------|--------|--------|--------|
     .   .    .   .    .   .    .   .

G |--------|--------|--------|--------|
D |--------|--------|--------|--------|
A |000-0-00|0-00000-|000-0-00|0-00000-|
E |--------|--------|--------|--------|


Login or Register to remove this ad.