Forever Rachel (Final Fantasy VI) Bass Tab

Submitted: Mar 02, 2009 by auriplane (Last updated: Jan 13, 2011)

5
Average: 5 (1 vote)
Download | Listen
Game: Final Fantasy VI
Composer(s): Nobuo Uematsu
Style: Transcription
Series: Final Fantasy

AutoScroll: Slow | Medium | Fast
                Final Fantasy VI - Forever Rachel BASS TAB
                           Song by Nobuo Uematsu

                  Tabbed by auriplane ([email protected])
                               On Mar 2, 2009

This song always makes me cry.  Also, I tabbed this in tenth 
position instead of fifth one string up, because that's where
the wolftone is on my J-bass.  This song sounds really good on
fretless, 'cause of the slide.

Four-string bass, standard tuning.

G |------------|------------|------------|------------|
D |------------|------------|------------|------------|
A |10-------10-|------------|------------|13----------|
E |------------|13----------|11-------11-|------------|
                                          
G |------------|------------|------------|------------|
D |10----------|------------|---------12-|------------|
A |---------10-/15----------|10----------|10----------|
E |------------|------------|------------|------------|

G |------------|------------|------------|------------|
D |------------|11-------11-|12----------|12----------|
A |12-------12-|------------|---------12-|------9-----|
E |------------|------------|------------|------------|

G |------------|------------|------------|------------|
D |------------|------------|------------|------------|
A |10-------10-|------------|------------|13----------|
E |------------|13----------|11-------11-|------------|
                                          
G |------------|------------|------------|------------|
D |------------|12----------|------------|------------|
A |11-------11-|------12----|10----------|------------|
E |------------|------------|------------|------------|
Login or Register to remove this ad.