Lenna's Theme (Final Fantasy V) Guitar Tab

Submitted: Aug 29, 2008 by TheDoomOfAllFires (Last updated: Oct 31, 2009)

4.846155
Average: 4.8 (13 votes)
Download | Listen
Game: Final Fantasy V
Composer(s): Nobuo Uematsu
Style: Arrangement, Fingerstyle
Series: Final Fantasy

AutoScroll: Slow | Medium | Fast
Final Fantasy V - Lenna's Theme
Tabbed by TheDoomOfAllFires, 8/29/08

Bpm = 80
Standard tuning

Note: Let the notes ring to form a nice and fluid sound.

     E  E  E  E  H           E  E  E  E  H           E  E  E  E  H         
E||-----------------------|-----------------------|-----------------------|
B||-----------------------|-----------0--L--------|-----------1-----------|
G||-----------2--L--------|--------0-----L--------|-----------2--L--------|
D||--------2-----L--------|-----------------------|--------2-----L--------|
A||-----3--------L--------|-----2--------L--------|-----3--------L--------|
E||--1-----------L--------|--1-----------L--------|--1-----------L--------|


  E  E  E  E  H           E  E  E  E  E  E  E  E     E  E  E  E  H         
-----------------------|--------3-----1-----0-----|-----0-----------------|
-----------0--L--------|--1-----------------------|--3-----0--------------|
--------0-----L--------|-----------2--------------|-----------0-----------|
-----------------------|--------2-----3--------2--|--------2--------------|
-----2--------L--------|-----3-----------3--------|-----2-----------------|
--1-----------L--------|--1-----------------1-----|--0-----------L--------|


  E  E  E  E  E  E  E  E     E  E  Q    E  E  Q       E   E  Q.     E  E  E   
-----0--------------------|------------------------|-------------------------|
--3-----0-----------0--3--|--1---------------------|-------------------------|
-----------0-----2--------|-----2--2---------------|---------2---------------|
--------2-----2--------2--|-----2-------------5----|--0h--2---------2--0--2--|
-----2-----------2--------|--0-------------5--5----|---------3---------------|
--0-----------L-----0-----|-------------3----------|--1----------------------|


                                                   ^                    
  Q    Q    Q    Q       E   E  Q.     E  E  E     H        Q    E  E   
----------------------|-------------------------|----------------------|
--0-------------------|---------0---------------|--2----------------0--|
-------0--------------|----------------0-----0--|--2-------------2-----|
------------0---------|--0h--2------------2-----|--2-------------------|
-----------------2----|-------------------------|-----------0----------|
--3-------------------|--0----------------------|----------------------|


    E  E  E  E  E  E  E  E     E  E  E  E  H           E  E  E  E  E  E  E  E   
|---------3-----1-----0-----|-----0-----------------|-----0--------------------|
|---1-----------------------|--3-----0--------------|--3-----0-----------0--3--|
|*-----------2--------------|-----------0-----------|-----------0-----2--------|
|*--------2-----3--------2--|--------2--------------|--------2-----2--------2--|
|------3-----------3--------|-----2-----------------|-----2-----------2--------|
|---1-----------------1-----|--0-----------L--------|--0-----------L-----0-----|


  E  E  Q    E  E  Q       E   E  Q.     E  E  E     W                 
------------------------|-------------------------|-------------------|
--1---------------------|-------------------------|--0----------------|
-----2--2---------------|---------2---------------|-------------------|
-----2-------------5----|--0h--2---------2--0--2--|-------------------|
--0-------------5-------|---------3---------------|-------------------|
-------------3----------|--1----------------------|--3----------------|


                            ^                                         
  E   E  Q.     E  E  E     W                   Q    E  E  Q.     E   
-------------------------|-------------------|--3-----------------5--|
---------0---------------|-------------------|-------0--1--3---------|
----------------0-----0--|--2----------------|--0----------0---------|
--0h--2------------2-----|-------------------|-----------------------|
-------------------------|--3----------------|--3--------------------|
--0----------------------|--1----------------|-------------3---------|


  H        Q.     E     Q    E  E  Q    Q       W                 3x
--3---------------1--|--3---------------5----|--3-----------------||
-----------4---------|-------0--1--3---------|--4-----------------||
-----------3---------|--0--------------------|-------------------*||
--1------------------|-------------0---------|--1----------------*||
---------------------|--3--------------------|--------------------||
---------------------|-----------------------|--------------------||


  ^                                      
  W                                      
--3----------------|-------------------||
--3----------------|-------------------||
--0----------------|-------------------||
--0----------------|-------------------||
-------------------|-------------------||
--3----------------|-------------------||
 

Login or Register to remove this ad.

5 comments on Lenna's Theme

Re: Lenna's Theme

5

How come this TAB's still unrated? It's beautiful.

Wow you're right that's

Wow you're right that's pretty, I rated it 5 stars

Accurate as hell xD

5

I'm not a Final Fantasy V fan, but I have to admit that this tab is great. Thanks for sharing.

Hey hey, nice piece!

5

Hey hey, nice piece!

How could I never come across

5

How could I never come across this before ?