Home, Sweet Home (Final Fantasy V) Guitar Tab

Submitted: Mar 23, 2009 by TheDoomOfAllFires (Last updated: May 26, 2014)

5
Average: 5 (9 votes)
Download | Listen
Game: Final Fantasy V
Composer(s): Nobuo Uematsu
Style: Arrangement, Fingerstyle
Series: Final Fantasy

AutoScroll: Slow | Medium | Fast
"Home, Sweet Home" - Final Fantasy V
Composer : Nobuo Uematsu
Arrangement : TheDoomOfAllFires
Tuning : Standard EASGBE
BPM : 55



     ^                                ^                                
     E  E  E  S S S S S S    E  E  E  E  Q       E  E  E  S S S S S S  
E||-----2--2--5-4-2-0-2-4-|--2----------------|-----2--2--5-4-2-0-2-4-|
B||--0--2--3--2-------0---|-----------0-------|--0--2--3--2-------0---|
G||--4------------2-------|-----4--2--4--L----|--4------------2-------|
D||--4--------------------|-----0-----0--L----|--4--------------------|
A||--2--------0-----------|--------4--2--L----|--2--------0-----------|
E||-----------------------|--3----------------|-----------------------|


            ^                                                          
  S S E  E  Q.          E  E  E  S S S S S S    E  E  E  E  S  S S  S  
--2---7--5--7------||------2--2--5-4-2-0-2-4-|--2---------------------|
--0---------7------||---0--2--3--2-------0---|-----------0------------|
------7--6--7------||*--4------------2-------|-----4--2--4--L---------|
----0-------9------||*--4--------------------|-----0-----0--L----0h-4-|
------------9------||---2--------0-----------|--------4--2--2h-4------|
--3---------7------||------------------------|--3---------------------|


                                    ^         ^               ^       
  E  E  E  S S S S S S    S S E  E  Q.        E  S S  S  S E  E  S S  
-----2--2--5-4-2-0-2-4-|--2---7--5--7------|--7--7-9----------5----4-|
--0--2--3--2-------0---|--0---------7------|--7------10p-7-5--5------|
--4------------2-------|------7--6--7------|--7--7---------6---------|
--4--------------------|----0-------9------|------------------7------|
--2--------0-----------|------------9------|---------------------0---|
-----------------------|--3---------7------|--7------------5---------|


                                                               ^       
  E  S S S S E  S  S S  S    E  E  E  S S S S S S    S S E  E  Q.      
--2-----------------------|-----2--2--5-4-2-0-2-4-|--2---7--5--7------|
--0--0-3-2----------------|--0--2--3--2-------0---|--0---------7------|
---------0-2-4------------|--4------------2-------|------7--6--7------|
-----4---2---4-------0h-4-|--4--------------------|----0-------9------|
-------------2--2h-4------|--2--------0-----------|------------9------|
--3-----------------------|-----------------------|--3---------7------|


         ^      ^                ^  ^                  ^      ^       
  S S E  E  S S E   E     S S E  E  E  E  E     S S E  E  S S E   E   
------2--2--0---5p--4--|------2--2--0--------|------2--2--0---5p--4--|
------0--0------2------|------0--0-----3--2--|------0--0------2------|
----------------2------|----0----0--2--------|----------------2------|
----4---------2--------|---------0--------2--|----4---------2--------|
--2------2--0----------|------------0--------|--2------2--0----------|
-----------------------|--3------------------|-----------------------|


  ^        ^           ^        ^                        
  E.  S E  Q.          E.  S E  Q.        H.             
--2---7-5--7-------||--2---------------|---------------||
--0--------7-------||--0---3-2--0------|--L------------||
-----------7------*||------2-----------|---------------||
--------7--9------*||--------2--4------|--L------------||
-----------9-------||-----------2------|--L------------||
--3--------7-------||--3---------------|---------------||




Duration Legend
---------------
W - whole
H - half
Q - quarter
E - 8th
S - 16th
T - 32nd
X - 64th
. - note dotted
|-n-|  - n-tuplets


Tablature Legend
----------------
L - tied note
x - dead note
g - grace note
(n) - ghost note
> - accentuded note
NH - natural harmonic
AH - artificial harmonic
TH - tapped harmonic
SH - semi harmonic
PH - pitch harmonic
h - hammer on
p - pull off
b - bend
br - bendRelease
pb - preBend
pbr - preBendRelease
brb - bendReleaseBend
\n/ - tremolo bar dip
\n - tremolo bar dive
-/n - tremolo bar Release up
/n\ - tremolo bar inverted dip
/n - tremolo bar return
-\n - tremolo bar Release down
S - shift slide
s - legato slide
/ -  slide into from below or out of upwards
\ -  slide into from above or out of downwards
~ - vibrato
W - wide vibrato
tr - trill
TP - tremolo picking
T - tapping
S - slap
P - pop
< - fade in
^ - brush up
v - brush down
Login or Register to remove this ad.

3 comments on Home, Sweet Home

Hey, this sounds pretty darn

Hey, this sounds pretty darn accurate. And it's one of the catchiest tunes I've ever heard. Keep up the good work, and I'll grant you a wish!

I like it !

5

I like it !
& I adore how Manami Kiyota sing it : http://www.youtube.com/watch?v=6uxsRrjqykQ

5 stars for value but the

5

5 stars for value but the bass notes and chords seem to need some doctoring.