Ads

Dear Friends (Final Fantasy V) Guitar Tab

Submitted: Oct 18, 2008 by TrangOul (Last updated: Mar 12, 2010)

5
Average: 5 (13 votes)
Download | Listen
Game: Final Fantasy V
Composer(s): Nobuo Uematsu
Style: Arrangement, Fingerstyle
Series: Final Fantasy

AutoScroll: Slow | Medium | Fast
'Dear Friends'
From Final Fantasy V
Originally composed by Nobuo Uematsu
Arranged by Marcus Kasperski

Dropped D Tuning | Andante

     Q    Q    H           Q    Q    H           Q    Q    H           Q    Q    Q    S S S S  
E||---------------------|---------------------|---------------------|-------------------------|
B||------------0--------|-------2----3--------|------------0--------|-------2----3------0-1-3-|
G||-------2-------------|-------2----4--------|-------2-------------|-------2----4----2-------|
D||-------2----4--------|-------2----4--------|-------2----4--------|-------2----4------------|
A||--0----4----5--------|--0------------------|--0----4----5--------|--0----------------------|
D||---------------------|---------------------|---------------------|-------------------------|


              ^                                                  ^            
    Q    Q    E  E  E  E     Q    Q    Q    S S S S    Q    Q    E  E  E  E   
|---0----3----2--0-----2--|--0----------------------|--0----3----2--0-----2--|
|--------1----3-----3-----|-------------------0-1-3-|-------1----3-----3-----|
|*-------2----2-----------|-------0----2----2-------|-------2----2-----------|
|*------------0-----------|-------2----4------------|------------0-----------|
|---0---------------------|--0---------5------------|--0---------------------|
|-------------------------|-------------------------|------------------------|


                                   ^                          ^                   ^                 
  Q    E  E  H           Q    Q    E  E  E  E     E  E  E  E  Q    E  E     E  E  E  E  Q    E  E   
--0-------------------|--0----3----2--0-----2--|--0----------------------|--------0----------------|
--0----------0--------|-------1----3-----3-----|----------------------0--|--1-----1-----3----0-----|
--1----1--2--1--------|-------2----2-----------|--2-----------2----2-----|-----2--2-----4-------0--|
-------2--4-----------|------------0-----------|--------------3----------|--3-----------5----0-----|
----------------------|--0---------------------|--------0--2--3----------|-------------------2-----|
--2-------------------|------------------------|--3--5--------0----3--2--|--0--------1--2----------|


  Q    E  E  Q    S S S S      H        Q    E  E     Q    Q    Q.     E     Q    E  E  Q    E  E   
---------------------------||----------------------|-------0--------------|------------------------|
--------------------0-1-3--||-------------------0--|--2----0----3------2--|--0-------0--2----2--3--|
--2---------------2-------*||--2-------------2-----|--2----1--------------|--1----2-----2----------|
--2-------0---------------*||--3-------------------|--2----2----4---------|--2---------------------|
--0----2-----3-------------||--3-------------------|--0-------------------|-------------0----------|
---------------------------||--3-------------------|------------0---------|--2---------------------|


             ^                                                                     ^         
  Q    E  E  Q.     E     Q    Q    H           E  E  Q    Q    E  E     Q    Q    H         
--0----5--4--2------0--|--0------------------|--2--0--2---------------|--0------------------|
-------2-----0---------|--0------------------|-------------0----2--3--|--2---------2--------|
-------2-----2---------|--2---------1--------|--------2----1----------|--2---------3--------|
-------2-----1---------|--2------------------|--0-----4---------------|------------2--------|
--0--------------------|-------2-------------|------------------------|--0------------------|
-----------------------|------------2--------|-------------2----------|-------6----4--------|


  ^           ^                                                                                   
  E  E  E  E  E  E  E  E     H        Q    E  E     Q    Q    Q.     E     Q    E  E  Q    E  E   
--------------------------|----------------------|-------0--------------|------------------------|
--3--2--3-----2--1--2-----|--0----------------0--|--2----0----3------2--|--0-------0--2----2--3--|
--4--------2-----------2--|----------------2-----|--2----1--------------|--1----2-----2----------|
--4-----------2-----------|--2-------------------|--2----2----4---------|--2---------------------|
--2-----------0-----------|----------------------|--0-------------------|-------------0----------|
--------------------------|--2-------------------|------------0---------|--2---------------------|


             ^                                                                                    
  Q    E  E  Q.     E     Q    Q    H           E  E  E  E  Q    E  E     E  E  E  E  Q    E  E   
--0----5--4--2------0--|--0------------------|-------------------------|-------------------------|
-------2-----0---------|--0------------------|--5--3--------3-------2--|--3--2--0-----2-------0--|
-------2-----2---------|--2---------1--------|--3-----6--4--4----4-----|--1--------2-------2-----|
-------2-----1---------|--2------------------|--------------4----------|--2-----------2----------|
--0--------------------|-------2-------------|--------------2----------|--------------0----------|
-----------------------|------------2--------|--4----------------------|--2----------------------|


                             ^                      ^        ^           ^        ^         
  E  E  E  E  E  E  E  E     H        Q    E  E     H        H           H        H         
-----------2--5--4--5--9--|--7-------------2--4--|--5--------4--------|--2--------0--------|
--2-----2-----2-----------|--4-------------------|--3--------5--------|--3--------0--------|
--2--5--------2-----------|--4-------------------|--2--------4--------|--2--------1--------|
--------------2-----------|--4-------------------|--0--------2--------|--------------------|
--------------------------|----------------------|--------------------|--0-----------------|
--4-----------------------|----------------------|--------------------|-----------2--------|


  Q    Q    H           Q    Q    H           Q    Q    H           Q    Q    Q    S S S S  
---------------------|---------------------|---------------------|-------------------------|
------------0--------|-------2----3--------|------------0--------|-------2----3------0-1-3-|
-------2-------------|-------2----4--------|-------2-------------|-------2----4----2-------|
-------2----4--------|-------2----4--------|-------2----4--------|-------2----4------------|
--0----4----5--------|--0------------------|--0----4----5--------|--0----------------------|
---------------------|---------------------|---------------------|-------------------------|


            ^                                                  ^                                   
  Q    Q    E  E  E  E     Q    Q    Q    S S S S    Q    Q    E  E  E  E     Q    E  E  H         
--0----3----2--0-----2--|--0----------------------|--0----3----2--0-----2--|--0-------------------|
-------1----3-----3-----|-------------------0-1-3-|-------1----3-----3-----|--0----------0--------|
-------2----2-----------|-------0----2----2-------|-------2----2-----------|--1----1--2--1--------|
------------0-----------|-------2----4------------|------------0-----------|-------2--4-----------|
--0---------------------|--0---------5------------|--0---------------------|----------------------|
------------------------|-------------------------|------------------------|--2-------------------|


            ^                          ^                   ^                   ^                  
  Q    Q    E  E  E  E     E  E  E  E  Q    E  E     E  E  E  E  Q    E  E     W                  
--0----3----2--0-----2--|--0----------------------|--------0----------------|-------------------||
-------1----3-----3-----|----------------------0--|--1-----1-----3----0-----|-------------------||
-------2----2-----------|--2-----------2----2-----|-----2--2-----4-------0--|--2----------------||
------------0-----------|--------------3----------|--3-----------5----0-----|--2----------------||
--0---------------------|--------0--2--3----------|-------------------2-----|--0----------------||
------------------------|--3--5--------0----3--2--|--0--------1--2----------|--2----------------||



Duration Legend
---------------
W - whole
H - half
Q - quarter
E - 8th

Tablature Legend
----------------
^ - brush up
Login or Register to remove this ad.

1 comment on Dear Friends

Good stuff!

5

Good stuff!