The Fierce Battle (Final Fantasy V) Bass Tab

Submitted: Mar 27, 2009 by auriplane (Last updated: Aug 19, 2011)

0
Download | Listen
Game: Final Fantasy V
Composer(s): Nobuo Uematsu
Style: Transcription
Series: Final Fantasy

This song is also called Battle 2, Boss Battle

AutoScroll: Slow | Medium | Fast
              Final Fantasy V (SNES) - Boss Battle BASS TAB
                          Song by Nobuo Uematsu

                 Tabbed by auriplane ([email protected])
                             On Mar 26, 2009


Five-string bass, standard tuning.

G |----------------|----------------|----------------|----------------|
D |----------------|----------------|----------------|----------------|
A |----------------|--------4-------|----------------|----------------|
E |2---------------|----------------|2---------------|----------------|
B |----------------|----------------|----------------|--------2-------|

G |------------1-2-|--------------1-|------------1-2-|------------1-2-|
D |--------3-4-----|----------3-4---|--------2-4-----|--------3-4-----|
A |----0-4---------|----0-3-4-------|----0-4---------|----0-4---------|
E |2-4-------------|2-4-------------|2-4-------------|2-4-------------|
B |----------------|----------------|----------------|----------------|

G |----------------|----------------|----------------|----------------|
D |----------------|----------------|----------------|----4-3-2-1-0---|
A |----------------|----------------|----------------|--3-----------4-|
E |2-2-2-2-2-2-2-2-|2-2-2-2-2-2-2-2-|2-2-2-2-2-2-2-2-|2---------------|
B |----------------|----------------|----------------|----------------|

G |----------------|----------------|----------------|----------------| \
D |----------------|----------------|----------------|--------2-1-----|  \
A |--4-------4-----|--4-------4-----|----------------|----0-4-----4-0-|   |
E |2-------2-------|2-------2-------|2-2-2-2-2-2-2-2-|2-4-------------|   |
B |------2-------2-|------2-------2-|----------------|----------------|   |
                                                                          | x2
G |----------------|----------------|----------------|----------------|   |
D |----------------|----------------|------2---------|------2---0-----|   |
A |--4-------4-----|--4-------4-----|0---------------|0-----------4-0-|   |
E |2-------2-------|2-------2---2-4-|------------0---|----------------|  /
B |------2-------2-|------2---------|----------------|----------------| /

G |----------------|----------------|----------------|----------------|
D |----------------|----------------|----------------|----------------|
A |------4---4-----|------4---4-----|----------------|--------------4-|
E |------------4---|------------4---|5-0-5-0-5-0-5-0-|5-0-5-0-5-0-5---|
B |2-2-------------|2-2-------------|----------------|----------------|

G |----------------|----------------|----------------|----------------|
D |----------------|----------------|----------------|----------------|
A |2---2---2---2---|2---2---2---2-4-|5-0-5-0-5-0-5-0-|5-0-5-0-5-0-----|
E |--2---2---2---2-|--2---2---2-----|----------------|------------4-2-|
B |----------------|----------------|----------------|----------------|

G |----------------|----------------|
D |----------------|----------------|
A |------4---------|----------------|
E |1-----------4---|------------1---|
B |----------------|2-----4---------|

   (7/4 time)
G |----------------------------|----------------------------|
D |----------------------------|----------------------------|
A |----0-2-0-------0-2-0-------|----0-2-0-------0-2-0-------|
E |2-4-------4-2-4-------4-2---|2-4-------4-2-4-------4-2---|
B |----------------------------|----------------------------|

   (4/4 time)
G |----------------|----------------|
D |----------------|----------------|
A |----0-2-0-------|0-2-0-------0-2-|
E |2-4-------4-2-4-|------4-2-4-----|
B |----------------|----------------|

G |----------------|----------------|----------------|----------------|
D |----------------|----------------|----------------|----------------|
A |----------------|----------------|----------------|----------------|
E |----------------|----------------|3---3-----------|----------------|
B |3---3-----------|----------------|----------------|----------------|

    Repeat back to the beginning.
Login or Register to remove this ad.