Battle (Final Fantasy V) Bass Tab

Submitted: Mar 26, 2009 by auriplane (Last updated: Mar 27, 2009)

5
Average: 5 (1 vote)
Download | Listen
Game: Final Fantasy V
Composer(s): Nobuo Uematsu
Style: Transcription
Series: Final Fantasy

This song is also called Battle 1

AutoScroll: Slow | Medium | Fast
                 Final Fantasy V (SNES) - Battle BASS TAB
                          Song by Nobuo Uematsu

                 Tabbed by auriplane ([email protected])
                             On Mar 26, 2009


Four-string bass, standard tuning.  

    Intro

G |----------------|----------------|
D |----------------|----------------|
A |----------------|----------------|
E |5-5-5-5-5-5-3-3-|5-5-5-5-5-5-3-3-|

    Part A

G |----------------|----------------|----------------|----------------|
D |----7-----7-----|----3-----3---5-|----------------|----------------|
A |----------------|----------------|----------------|----------------|
E |5-5---5-5---3-1-|--1---1-1---3---|5-5-5-5-5-5-3-3-|5-5-5-5-5-5-3-3-|
                                      
G |----------------|----------------|----------------|----------------|
D |----7-----7-----|----3-----3---5-|----------------|2-----------2---|
A |----------------|----------------|3---------3-5---|------2---2---2-|
E |5-5---5-5---3-1-|--1---1-1---3---|------3---------|----------------|

    Part B

G |----------------|----------------|----------------|----0-1-2-------|
D |----2-3-----2-3-|2---------------|------------3---|-----------2----|
A |----------------|------1-2-----6-|5-5-----------3-|--------------0-|
E |1-1-------1-----|----------0-----|----4-5---1-----|3---------------|
                                      
G |----------------|----------------|----------------|----------------|
D |----------------|2---2---2---2---|--3---3---3---3-|--5---5---5---5-|
A |5-0-5-0-5-0-5-0-|--2---2---2---2-|----------------|----------------|
E |----------------|----------------|1---1---1---1---|3---3---3---3---|
                                      
G |----------------|----------------|----------------|----------------|
D |-------------2h3|-------------2h3|------1-----2---|----------------|
A |----------------|----------------|----------------|1-----2---------|
E |1-----1---------|1-----1---------|0---------------|------------4---|

    Repeat back to Part A.
Login or Register to remove this ad.

4 comments on Battle

Great Tab~

This is one of my fav Final Fantasy themes :P

Hey Auri, can you make me a violin sheet of this song?

Sure!! For first and second

Sure!! For first and second violin?

Yep

Yep

Love it

5

This is one of the best to play cos of the differing time structures, I absolutely love it.