Ads

Red Cap Assault (Final Fantasy Mystic Quest) Guitar Tab

Submitted: Dec 02, 2007 by CpxAzn (Last updated: Dec 02, 2007)

5
Average: 5 (8 votes)
Download | Listen
Game: Final Fantasy Mystic Quest
Composer(s): Y. Kawakami
Style: 2 or more instruments, Transcription
Series: Final Fantasy

This song is also called Battle Theme

AutoScroll: Slow | Medium | Fast
                                Red Cap Assault                                 


                                      http://www.youtube.com/watch?v=gKtWjL0SNnk
Guitar 1



     W                      E   E   E   E   E   E   E   E   
E||-------------------||-----------------------14------12--|
B||-------------------||---12------15------12------12------|
G||-------------------||*------11------11------------------|
D||-------------------||*----------------------------------|
A||-------------------||-----------------------------------|
E||-------------------||-----------------------------------|


   E   E   E   E   E   E   E   E      E   E   E   E   E   E   E   E   
------------------14--------------|------------------------------12--|
--12--15--14----------15--14------|--12------14------15--14--15------|
--------------14--------------14--|------12------12------------------|
----------------------------------|----------------------------------|
----------------------------------|----------------------------------|
----------------------------------|----------------------------------|


   E   E   E   E   E   E   E   E        E   E   E   E   E   E   E   E   
----------14--12------12-----------||----------------------14------12--|
--12--------------15------14-------||--12------15------12------12------|
------12----------------------14--*||------11------11------------------|
----------------------------------*||----------------------------------|
-----------------------------------||----------------------------------|
-----------------------------------||----------------------------------|


   E   E   E   Q    Q.        H         E  E  E  E      Q    E  Q    E  E  E    
----------14--12-----------|-------------------------|-------------------------|
------12-------------------|-------------------------|-------------------------|
--11-----------------------|---------------6--7--6~--|--L----9--7----6--7------|
---------------------------|--9~--------L------------|---------------------9~--|
---------------------------|-------------------------|-------------------------|
---------------------------|-------------------------|-------------------------|


  H        E  E   E  E     E  E  E  Q    E  E  E     H         E  E  E  E   
------------------------|-------------------------|------------------------|
------------------------|-------------------------|------------------------|
-----------------11--9--|--L--7--7--6----------6--|---------------6--7--6--|
--L--------L--9---------|----------------9--7-----|--9~--------L-----------|
------------------------|-------------------------|------------------------|
------------------------|-------------------------|------------------------|


  Q    E  Q    E  E  E      H.           E  E      Q    E  H         E   
-------------------------|----------------------|-----------------------|
------------------7--8~--|--L-------------------|-----------------------|
--L----9--7----7---------|---------------7--9~--|--L----7--6~--------L--|
-------------------------|----------------------|-----------------------|
-------------------------|----------------------|-----------------------|
-------------------------|----------------------|-----------------------|


   H         E   E   E   E      W                      H          H          
----------------------------|----------------------|------------------------|
--------------------14--15--|--15b~----------------|--15~-------------------|
----------------16----------|----------------------|------------------------|
--16~--------L--------------|----------------------|-------------16~--------|
----------------------------|----------------------|------------------------|
----------------------------|----------------------|------------------------|


   W                     H          E   E   E   E      H          H          
---------------------|-----------------------------|------------------------|
---------------------|--15~----------------14--15--|--14~-------------------|
---------------------|-------------16--16----------|-------------14~--------|
--14~----------------|-----------------------------|------------------------|
---------------------|-----------------------------|------------------------|
---------------------|-----------------------------|------------------------|


              W                    Q.      E   H          
-----------|-------------------|-------------------------|
-----------|-------------------|--14------15-------------|
-----------|-------------------|--------------16~--------|
-----------|-------------------|-------------------------|
-----------|-------------------|-------------------------|
-----------|-------------------|-------------------------|


   Q     S  S  S  S  E   E   E   E     Q     E   E   H          
------------------------------------|--------------------------|
--------------------14--15--17--14--|--L----10--10--12~--------|
---L----------14-16-----------------|--------------------------|
--------14-16-----------------------|--------------------------|
------------------------------------|--------------------------|
------------------------------------|--------------------------|


  W                    E   E   E   E   E   E   E   E   
-------------------|------------------14------14--14--|
--L----------------|--15--14--15--17------------------|
-------------------|----------------------16----------|
-------------------|----------------------------------|
-------------------|----------------------------------|
-------------------|----------------------------------|


      |--|   |---3---|   |---3---|   |---3---|   
   E  S  E   E   E   E   E   E   E   E   E   E   
---L--L-----------------------------------------|
--------17--15--17--15--14--15--14------14------|
------------------------------------16------14--|
------------------------------------------------|
------------------------------------------------|
------------------------------------------------|


   Q     Q     E   E   E   S  S     S  E.   E   E   E   E   Q     
--------------------------14----|--14----------------------------|
--------14----15--14--15--------|----------17------15--17--14----|
--16-------------------------16-|-----16-------16----------------|
--------------------------------|--------------------------------|
--------------------------------|--------------------------------|
--------------------------------|--------------------------------|


   E   E   E   E   E   E   E   E      E   S  S  E   S  S  E   E   E   E   
-----------------------------------|---------------------------------14--|
--15--17--14--15------14-----------|-----------15--------17--15--17------|
------------------16------14--16~--|--L-----16--------16-----------------|
-----------------------------------|-----16--------16--------------------|
-----------------------------------|-------------------------------------|
-----------------------------------|-------------------------------------|


   Q.       E    H             W                 
--14~------14b--14~--------|---L----------------|
---------------------------|--------------------|
---------------------------|--------------------|
---------------------------|--------------------|
---------------------------|--------------------|
---------------------------|--------------------|


                                                 |--3--|                     
   E   E  E   S  S  E   S  S  E   E      E   E   S  S  S  Q     E   E   E    
-------------------------------------|--14--15--14-15-14--------------------|
--15------------14-15-----14-15--17--|-------------------17----15--14--14~--|
------16-----16--------16------------|--------------------------------------|
-------------------------------------|--------------------------------------|
-------------------------------------|--------------------------------------|
-------------------------------------|--------------------------------------|


   Q.      E   H             S  S  S  S  S  S  S  S  S  S  S  S  S  S  S  S  
-------------------------|--------------------------------------14----------|
---L------15-------------|-----------------------14-15-14-15-17----17-15-14-|
--------------16~--------|-----------14-16-14-16----------------------------|
-------------------------|--17-16-17----------------------------------------|
-------------------------|--------------------------------------------------|
-------------------------|--------------------------------------------------|


    PM PM    PM    PM PM       PM    PM PM             
    E  E  E  E  E  E  E  E     E  E  E  E  Q    E  E   
|---------------------------|-------------------------|
|---------------------------|-------------------------|
|*--------------------------|-------------------------|
|*--------7-----9--------7--|-----9--------9----7--5--|
|---------7-----9--------7--|-----9--------9----7--5--|
|---7--7-----7-----7--7-----|--7-----7--7--7----5--3--|


     PM    PM    PM PM       PM    PM PM                         PM PM PM     
  E  E  E  E  E  E  E  E     E  E  E  E  Q    Q         H        E  E  E  E   
--------------------------|-------------------------||-----------------------|
--------------------------|-------------------------||-----------------------|
--------------------------|------------------------*||-----------------------|
--------------------------|--------------5----7----*||--9-----------------9--|
--L-----4-----5--------7--|-----5--------5----7-----||--9-----------------9--|
--L--3-----3-----3--3-----|--3-----3--3--3----5-----||--7--------7--7--7--7--|


       PM                                                                   
  Q    E  Q    E  E  E     E  E  Q.     E  E  E     E  E  E  Q    E  E  E   
------------------------|------------------------|-------------------------|
------------------------|------------------------|-------------------------|
----------9----7--6--4--|-----2--4------4--7--6--|--L-----9--7-------7-----|
--L-------9----7--6--4--|-----2--4------4--7--6--|--L-----9--7----4--7--5--|
--L-------7----5--4--2--|--2--0--2------2--5--4--|--L--4--7--5----4--5--5--|
--L----7--7----5--4-----|------------------------|----------------2-----3--|


  E  E  E  Q    E  E  E     E  E  E  Q.     E  E     E  E  Q.     E  E  E   
-------------------------|------------------------|------------------------|
-------------------------|------------------------|------------------------|
-------------------7--6--|--L-----7--6---------2--|-----2--4------4--7--6--|
--L-----4--5-------7--6--|--L-----7--6---------2--|-----2--4------4--7--6--|
--L-----4--5-------5--4--|--L--4--5--4------4--0--|--2--0--2------2--5--4--|
--L--3--2--3----3--------|------------------------|------------------------|


  E  E  E  Q    E  E  E     E  E  E  Q    E  E  E     E  E  E  Q.     E  E   
-------------------------|-------------------------|------------------------|
-------------------------|-------------------------|------------------------|
--L-----9--7-------7-----|-------------------7--6--|--L-----7--6---------2--|
--L-----9--7----4--7--5--|--L-----4--5-------7--6--|--L-----7--6---------2--|
--L--4--7--5----4--5--5--|--L-----4--5-------5--4--|--L--4--5--4------4--0--|
----------------2-----3--|--L--3--2--3----3--------|------------------------|


   E   E   E   E   E   E   E   E      E   E   E   E   E   E   E   E   
----------------------14--12--14--|----------------------------------|
--12------15------12--------------|--14------17------14--15--14------|
------11------11------------------|------14------14--------------14--|
----------------------------------|----------------------------------|
----------------------------------|----------------------------------|
----------------------------------|----------------------------------|


   E   E   E   E   E   E   E   E      E   E   E   E   E   E   E   E   
----------------------------------|--------------12--17--12----------|
--15------19------17------15------|----------14--------------14------|
------16------16------16----------|------14----------------------14--|
------------------------------16--|--14------------------------------|
----------------------------------|----------------------------------|
----------------------------------|----------------------------------|


   E   E   E   E   E   E   E   E      E   E   E   E   E   E   E   E         
----------------------14--12--14--|--------------17------------------|-----|
--12------15------12--------------|--17------17----------15--17------|-----|
------11------11------------------|------14----------18----------18--|-----|
----------------------------------|----------------------------------|-----|
----------------------------------|----------------------------------|-----|
----------------------------------|----------------------------------|-----|


         E   E   E   E   E   E   E   E     E   E   E    E   E    E   E   E   
-----|----------------------------------|-------------------------------14--|
-----|--12------15------15--14------12--|--L--12--14s--15--17p--15--17------|
-----|------11------11----------14------|-----------------------------------|
-----|----------------------------------|-----------------------------------|
-----|----------------------------------|-----------------------------------|
-----|----------------------------------|-----------------------------------|


   H         E    E   E   E      E    E   E   E   E   E   E   E   
--14~--------L-------14--15--|--15p--14------14------------------|
----------------/17----------|-----------17------15--17--14--15--|
-----------------------------|-----------------------------------|
-----------------------------|-----------------------------------|
-----------------------------|-----------------------------------|
-----------------------------|-----------------------------------|


   S  S  S  S  S  S  S  S  S  S  S  S  S  S  S  S  
--------------14----14-15-17-15-14-------14-------|
-----14-15-17----17----------------17-15----17-15-|
--16----------------------------------------------|
--------------------------------------------------|
--------------------------------------------------|
--------------------------------------------------|


   S  S  S  S  S  S  S  S  S  S  S  S  S  S  S  S  
--------------------------------------------------|
--14-17-15-14-16-15-14-------14-------------------|
-----------------------16-14----16-14----16-14----|
--------------------------------------17-------17-|
--------------------------------------------------|
--------------------------------------------------|


   S  S  S  S  S  S  S  S  S  S  S  S  S  S  S  S  
--------------------------------------------------|
--------------------------------------------------|
-----14-------------------------------------------|
--16----17-16-14-17-16-14----16-14-------14-------|
--------------------------17-------17-16----17-16-|
--------------------------------------------------|


   |---3--|  |--3--|   |---3--|  |--3--|             
   S   S  S  S  S  S   S   S  S  S  S  S  H          
------------------14h-19p-14------------------------|
---------------15------------15---------------------|
------------16------------------16------------------|
---------16------------------------16---------------|
--14h-17------------------------------17-14\--------|
----------------------------------------------------|


  S   S S S S   S  S  S   S   S  S  S  S S S  S  
---------------------10h-14p-10-----------------|
------------------12------------12--------------|
------------7s-11------------------11s-7--------|
----------9------------------------------9------|
--------9----------------------------------9----|
--7h-10--------------------------------------10-|


  S   S S S S   S  S  S  H         
---------------------10-14--------|
------------------12--------------|
------------7s-11-----------------|
----------9-----------------------|
--------9-------------------------|
--7h-10---------------------------|


   T         T         T         T         T         T         T     
   |---3--|  |---3--|  |---3--|  |---3--|  |---3--|  |---3--|        
   S   S  S  S   S  S  S   S  S  S   S  S  S   S  S  S   S  S  Q     
--12p-10p-7-14p-10p-7-15p-10p-7-12p-10p-7-14p-10p-7-15p-10p-7-17----|
--------------------------------------------------------------------|
--------------------------------------------------------------------|
--------------------------------------------------------------------|
--------------------------------------------------------------------|
--------------------------------------------------------------------|


   |---3--|  |--3--|  |---3--|  |--3--|            
   S   S  S  S  S  S  S   S  S  S  S  S  H         
--19p-14-----------------------------14-19--------|
---------15-----------------------15--------------|
------------16-----------------16-----------------|
---------------16-----------16--------------------|
------------------17-14h-17-----------------------|
--------------------------------------------------|


   S  S  S  S  S  S  S  S  S  S  S  S  S  S  S  S  
--------------------------------------------------|
--------------------------------------------------|
-----------------------------------------------14-|
-----------14-------14-16----14-16-17-15-16-17----|
--14-16-17----16-17-------17----------------------|
--------------------------------------------------|


   S  S  S  S  S  S  S  S  S  S  S  S  S  S  S  S  
--------------------------------------------------|
-----------------------------------15-------15-17-|
--------14-16----14-16-18-14-16-18----16-18-------|
--16-17-------17----------------------------------|
--------------------------------------------------|
--------------------------------------------------|


   S  S  S  S  S  S  S  S  S  S  S  S  S  S  S  S  
-----------------------15-------15-17----15-17-19-|
-----15-17-19-15-17-19----17-19-------19----------|
--18----------------------------------------------|
--------------------------------------------------|
--------------------------------------------------|
--------------------------------------------------|


   H          E   Q      E       W                   W                 
--19~--------17--19b----19~--|---L----------------|-------------------|
-----------------------------|--------------------|-------------------|
-----------------------------|--------------------|-------------------|
-----------------------------|--------------------|-------------------|
-----------------------------|--------------------|-------------------|
-----------------------------|--------------------|-------------------|


   E   E   E   E   E   E   E   E      E   E   E   E   E   E   E   E   
------------------------------12--|----------14--12------12----------|
--12------14------15--14--15------|--12--------------15------14------|
------12------12------------------|------12----------------------14--|
----------------------------------|----------------------------------|
----------------------------------|----------------------------------|
----------------------------------|----------------------------------|


   E   E   E   E   E   E   E   E      E   E   E   E   E   E   E   E   
----------------------14------12--|------------------14--------------|
--12------15------12------12------|--12--15--14----------15--14------|
------11------11------------------|--------------14--------------14--|
----------------------------------|----------------------------------|
----------------------------------|----------------------------------|
----------------------------------|----------------------------------|


   E   E   E   E   E   E   E   E      E   E   E   E   E   E   E   E   
------------------------------12--|----------14--12------12----------|
--12------14------15--14--15------|--12--------------15------14------|
------12------12------------------|------12----------------------14--|
----------------------------------|----------------------------------|
----------------------------------|----------------------------------|
----------------------------------|----------------------------------|


   E   E   E   E   E   E   E   E      E   E   E   Q    Q.      
----------------------14------12--|----------14--12-----------|
--12------15------12------12------|------12-------------------|
------11------11------------------|--11-----------------------|
----------------------------------|---------------------------|
----------------------------------|---------------------------|
----------------------------------|---------------------------|


  H         E  E  E  E      Q    E  Q    E  E  E      H        E  E   E  E   
-------------------------|-------------------------|------------------------|
-------------------------|-------------------------|------------------------|
---------------6--7--6~--|--L----9--7----6--7------|-----------------11--9--|
--9~--------L------------|---------------------9~--|--L--------L--9---------|
-------------------------|-------------------------|------------------------|
-------------------------|-------------------------|------------------------|


  E  E  E  Q    E  E  E     H         E  E  E  E     Q    E  Q    E  E  E    
-------------------------|------------------------|-------------------------|
-------------------------|------------------------|------------------7--8~--|
--L--7--7--6----------6--|---------------6--7--6--|--L----9--7----7---------|
----------------9--7-----|--9~--------L-----------|-------------------------|
-------------------------|------------------------|-------------------------|
-------------------------|------------------------|-------------------------|


  H.           E  E      Q    E  H         E       H         E   E   E   E   
----------------------|-----------------------|-----------------------------|
--L-------------------|-----------------------|-----------------12--14--15--|
---------------7--9~--|--L----7--6~--------L--|-----------------------------|
----------------------|-----------------------|--/16~--------L--------------|
----------------------|-----------------------|-----------------------------|
----------------------|-----------------------|-----------------------------|


   W                      H          H             W                  
----------------------|------------------------|---------------------|
--15b~----------------|--15~-------------------|---------------------|
----------------------|------------------------|---------------------|
----------------------|-------------16~--------|--14~----------------|
----------------------|------------------------|---------------------|
----------------------|------------------------|---------------------|


   H          E   E   E   E      H          H                      
-----------------------------|------------------------|-----------|
--15~----------------14--15--|--14~-------------------|-----------|
-------------16--16----------|-------------14~--------|-----------|
-----------------------------|------------------------|-----------|
-----------------------------|------------------------|-----------|
-----------------------------|------------------------|-----------|


  W                    Q.      E   H          
-------------------|-------------------------|
-------------------|--14------15-------------|
-------------------|--------------16~--------|
-------------------|-------------------------|
-------------------|-------------------------|
-------------------|-------------------------|


   Q     S  S  S  S  E   E   E   E     Q     E   E   H          
------------------------------------|--------------------------|
--------------------14--15--17--14--|--L----10--10--12~--------|
---L----------14-16-----------------|--------------------------|
--------14-16-----------------------|--------------------------|
------------------------------------|--------------------------|
------------------------------------|--------------------------|


  W                    E   E   E   E   E   E   E   E   
-------------------|------------------14------14--14--|
--L----------------|--15--14--15--17------------------|
-------------------|----------------------16----------|
-------------------|----------------------------------|
-------------------|----------------------------------|
-------------------|----------------------------------|


      |--|   |---3---|   |---3---|   |---3---|   
   E  S  E   E   E   E   E   E   E   E   E   E   
---L--L-----------------------------------------|
--------17--15--17--15--14--15--14------14------|
------------------------------------16------14--|
------------------------------------------------|
------------------------------------------------|
------------------------------------------------|


   Q     Q     E   E   E   S  S     S  E.   E   E   E   E   Q     
--------------------------14----|--14----------------------------|
--------14----15--14--15--------|----------17------15--17--14----|
--16-------------------------16-|-----16-------16----------------|
--------------------------------|--------------------------------|
--------------------------------|--------------------------------|
--------------------------------|--------------------------------|


   E   E   E   E   E   E   E   E      E   S  S  E   S  S  E   E   E   E   
-----------------------------------|-------------------------------------|
------14---------------------------|---------------------------------15--|
--16------14--16------14-----------|-----------16--------18--16--18------|
------------------16------14--16~--|--L-----16--------16-----------------|
-----------------------------------|-----17--------17--------------------|
-----------------------------------|-------------------------------------|


   Q.       E   H             W                 
--------------------------|--------------------|
--15~------17--15~--------|---L----------------|
--------------------------|--------------------|
--------------------------|--------------------|
--------------------------|--------------------|
--------------------------|--------------------|


                                                 |--3--|                     
   E   E  E   S  S  E   S  S  E   E      E   E   S  S  S  Q     E   E   E    
-------------------------------------|--------------------------------------|
---------------------------------14--|--15--17--15-17-15-14-----------------|
--16------------14-16-----14-16------|-------------------------16--14--14~--|
------16-----16--------16------------|--------------------------------------|
-------------------------------------|--------------------------------------|
-------------------------------------|--------------------------------------|


  Q.      E   H             S  S  S  S  S  S  S  S  S  S  S  S  S  S  S  S   
------------------------|-----------------------12-14-12-14-15-17-15-14-12-||
------------------------|--12----12-14-15-14-15----------------------------||
--L------16-------------|-----14-------------------------------------------||
-------------17~--------|--------------------------------------------------||
------------------------|--------------------------------------------------||
------------------------|--------------------------------------------------||




Duration Legend
---------------
W - whole
H - half
Q - quarter
E - 8th
S - 16th
T - 32nd
X - 64th
. - note dotted
|-n-|  - n-tuplets


Tablature Legend
----------------
L - tied note
x - dead note
g - grace note
(n) - ghost note
> - accentuded note
NH - natural harmonic
AH - artificial harmonic
TH - tapped harmonic
SH - semi harmonic
PH - pitch harmonic
h - hammer on
p - pull off
b - bend
br - bendRelease
pb - preBend
pbr - preBendRelease
brb - bendReleaseBend
\n/ - tremolo bar dip
\n - tremolo bar dive
-/n - tremolo bar Release up
/n\ - tremolo bar inverted dip
/n - tremolo bar return
-\n - tremolo bar Release down
S - shift slide
s - legato slide
/ -  slide into from below or out of upwards
\ -  slide into from above or out of downwards
~ - vibrato
W - wide vibrato
tr - trill
TP - tremolo picking
T - tapping
S - slap
P - pop
< - fade in
^ - brush up
v - brush down

                                Red Cap Assault                                 


                                      http://www.youtube.com/watch?v=gKtWjL0SNnk
Guitar 2



                             PM PM    PM    PM PM       PM    PM PM             
     H.           Q          E  E  E  E  E  E  E  E     E  E  E  E  Q    E  E   
E||---------------------||---------------------------|-------------------------|
B||---------------------||---------------------------|-------------------------|
G||---------------9\----||*--------------------------|-------------------------|
D||---------------9\----||*--------7-----9--------7--|-----9--------9----7--5--|
A||---------------7\----||---------7-----9--------7--|-----9--------9----7--5--|
E||---------------7-----||---7--7-----7-----7--7-----|--7-----7--7--7----5--3--|


     PM    PM    PM PM       PM    PM PM                         PM PM PM     
  E  E  E  E  E  E  E  E     E  E  E  E  Q    Q         H        E  E  E  E   
--------------------------|-------------------------||-----------------------|
--------------------------|-------------------------||-----------------------|
--------------------------|------------------------*||-----------------------|
--------------------------|--------------5----7----*||--9-----------------9--|
--L-----4-----5--------7--|-----5--------5----7-----||--9-----------------9--|
--L--3-----3-----3--3-----|--3-----3--3--3----5-----||--7--------7--7--7--7--|


       PM                                                                   
  Q    E  Q    E  E  E     E  E  Q.     E  E  E     E  E  E  Q    E  E  E   
------------------------|------------------------|-------------------------|
------------------------|------------------------|-------------------------|
----------9----7--6--4--|-----2--4------4--7--6--|--L-----9--7-------7-----|
--L-------9----7--6--4--|-----2--4------4--7--6--|--L-----9--7----4--7--5--|
--L-------7----5--4--2--|--2--0--2------2--5--4--|--L--4--7--5----4--5--5--|
--L----7--7----5--4-----|------------------------|----------------2-----3--|


  E  E  E  Q    E  E  E     E  E  E  Q.     E  E     E  E  Q.     E  E  E   
-------------------------|------------------------|------------------------|
-------------------------|------------------------|------------------------|
-------------------7--6--|--L-----7--6---------2--|-----2--4------4--7--6--|
--L-----4--5-------7--6--|--L-----7--6---------2--|-----2--4------4--7--6--|
--L-----4--5-------5--4--|--L--4--5--4------4--0--|--2--0--2------2--5--4--|
--L--3--2--3----3--------|------------------------|------------------------|


  E  E  E  Q    E  E  E     E  E  E  Q    E  E  E     E  E  E  Q.     E  E   
-------------------------|-------------------------|------------------------|
-------------------------|-------------------------|------------------------|
--L-----9--7-------7-----|-------------------7--6--|--L-----7--6---------2--|
--L-----9--7----4--7--5--|--L-----4--5-------7--6--|--L-----7--6---------2--|
--L--4--7--5----4--5--5--|--L-----4--5-------5--4--|--L--4--5--4------4--0--|
----------------2-----3--|--L--3--2--3----3--------|------------------------|


  W                   W                   W                   W                 
-------------------|-------------------|-------------------|-------------------|
-------------------|-------------------|-------------------|-------------------|
-------------------|-------------------|-------------------|-------------------|
-------------------|-------------------|-------------------|-------------------|
-------------------|-------------------|-------------------|-------------------|
-------------------|-------------------|-------------------|-------------------|


  W                   W                   E  H.           E   
-------------------|-------------------|---------------------|
-------------------|-------------------|---------------------|
-------------------|-------------------|------------------7--|
-------------------|-------------------|------------------7--|
-------------------|-------------------|------------------5--|
-------------------|-------------------|---------------------|


                       PM    PM PM    PM    PM PM       PM    PM PM             
  E  E  E  E  E  E  E  E     E  E  E  E  E  E  E  E     E  E  E  E  Q    E  E   
--------------------------|--------------------------|-------------------------|
--------------------------|--------------------------|-------------------------|
-----9-----7-----6--------|--------------------------|-------------------------|
-----9-----7-----6--------|--------7-----9--------7--|-----9--------9----7--5--|
-----7-----5-----4--4-----|--------7-----9--------7--|-----9--------9----7--5--|
-----------------------5--|--7--7-----7-----7--7-----|--7-----7--7--7----5--3--|


     PM    PM    PM PM       PM    PM PM              PM PM    PM    PM PM     
  E  E  E  E  E  E  E  E     E  E  E  E  Q    Q       E  E  E  E  E  E  E  E   
--------------------------|------------------------|--------------------------|
--------------------------|------------------------|--------------------------|
--------------------------|------------------------|--------------------------|
--------------------------|--------------5----7----|--------7-----9--------7--|
--L-----4-----5--------7--|-----5--------5----7----|--------7-----9--------7--|
--L--3-----3-----3--3-----|--3-----3--3--3----5----|--7--7-----7-----7--7-----|


  PM    PM PM                  PM    PM    PM PM       PM    PM PM            
  E  E  E  E  Q    E  E     E  E  E  E  E  E  E  E     E  E  E  E  Q    Q     
-------------------------|--------------------------|------------------------|
-------------------------|--------------------------|------------------------|
-------------------------|--------------------------|------------------------|
-----9--------9----7--5--|--------------------------|--------------5----7----|
-----9--------9----7--5--|--L-----4-----5--------7--|-----5--------5----7----|
--7-----7--7--7----5--3--|--L--3-----3-----3--3-----|--3-----3--3--3----5----|


  PM PM    PM    PM PM       PM    PM PM                  PM    PM    PM PM     
  E  E  E  E  E  E  E  E     E  E  E  E  Q    E  E     E  E  E  E  E  E  E  E   
--------------------------|-------------------------|--------------------------|
--------------------------|-------------------------|--------------------------|
--------------------------|-------------------------|--------------------------|
--------7-----9--------7--|-----9--------9----7--5--|--------------------------|
--------7-----9--------7--|-----9--------9----7--5--|--L-----4-----5--------7--|
--7--7-----7-----7--7-----|--7-----7--7--7----5--3--|--L--3-----3-----3--3-----|


  PM    PM PM              PM PM    PM    PM PM       PM    PM PM             
  E  E  E  E  Q    Q       E  E  E  E  E  E  E  E     E  E  E  E  Q    E  E   
------------------------|--------------------------|-------------------------|
------------------------|--------------------------|-------------------------|
------------------------|--------------------------|-------------------------|
--------------5----7----|--------7-----9--------7--|-----9--------9----7--5--|
-----5--------5----7----|--------7-----9--------7--|-----9--------9----7--5--|
--3-----3--3--3----5----|--7--7-----7-----7--7-----|--7-----7--7--7----5--3--|


     PM    PM    PM PM       PM    PM PM            
  E  E  E  E  E  E  E  E     E  E  E  E  Q    Q     
--------------------------|------------------------|
--------------------------|------------------------|
--------------------------|------------------------|
--------------------------|--------------5----7----|
--L-----4-----5--------7--|-----5--------5----7----|
--L--3-----3-----3--3-----|--3-----3--3--3----5----|


     E   E   E   E   E   E   E   E      E   E   E   E   E   E   E   E   
|-----------------------14------12--|------------------14--------------|
|---12------15------12------12------|--12--15--14----------15--14------|
|*------11------11------------------|--------------14--------------14--|
|*----------------------------------|----------------------------------|
|-----------------------------------|----------------------------------|
|-----------------------------------|----------------------------------|


   E   E   E   E   E   E   E   E      E   E   E   E   E   E   E   E     
------------------------------12--|----------14--12------12-----------||
--12------14------15--14--15------|--12--------------15------14-------||
------12------12------------------|------12----------------------14--*||
----------------------------------|----------------------------------*||
----------------------------------|-----------------------------------||
----------------------------------|-----------------------------------||


   E   E   E   E   E   E   E   E      E   E   E   Q    Q.      
----------------------14------12--|----------14--12-----------|
--12------15------12------12------|------12-------------------|
------11------11------------------|--11-----------------------|
----------------------------------|---------------------------|
----------------------------------|---------------------------|
----------------------------------|---------------------------|


  H         E  E  E  E     Q    E  Q    E  E  E      H        E  E   E  E   
------------------------|-------------------------|------------------------|
------------------------|-------------------------|------------------------|
---------------6--7--6--|--L----9--7----6--7------|-----------------11--9--|
--9~--------L-----------|---------------------9~--|--L--------L--9---------|
------------------------|-------------------------|------------------------|
------------------------|-------------------------|------------------------|


  E  E  E  Q    E  E  E     H         E  E  E  E     Q    E  Q    E  E  E    
-------------------------|------------------------|-------------------------|
-------------------------|------------------------|------------------7--8~--|
--L--7--7--6----------6--|---------------6--7--6--|--L----9--7----7---------|
----------------9--7-----|--9~--------L-----------|-------------------------|
-------------------------|------------------------|-------------------------|
-------------------------|------------------------|-------------------------|


  H.           E  E      Q    E  H         E      H         E   E   E   E   
----------------------|-----------------------|----------------------------|
--L-------------------|-----------------------|--------------------14--15--|
---------------7--9~--|--L----7--6~--------L--|----------------16----------|
----------------------|-----------------------|--16~--------L--------------|
----------------------|-----------------------|----------------------------|
----------------------|-----------------------|----------------------------|


   W                      H          H             W                  
----------------------|------------------------|---------------------|
--15b~----------------|--15~-------------------|---------------------|
----------------------|------------------------|---------------------|
----------------------|-------------16~--------|--14~----------------|
----------------------|------------------------|---------------------|
----------------------|------------------------|---------------------|


   H          E   E   E   E      H          H            E  H.           E   
-----------------------------|------------------------|---------------------|
--15~----------------14--15--|--14~-------------------|---------------------|
-------------16--16----------|-------------14~--------|------------------7--|
-----------------------------|------------------------|------------------7--|
-----------------------------|------------------------|------------------5--|
-----------------------------|------------------------|---------------------|


                       PM    PM PM    PM    PM PM       PM    PM PM             
  E  E  E  E  E  E  E  E     E  E  E  E  E  E  E  E     E  E  E  E  Q    E  E   
--------------------------|--------------------------|-------------------------|
--------------------------|--------------------------|-------------------------|
-----9-----7-----6--------|--------------------------|-------------------------|
-----9-----7-----6--------|--------7-----9--------7--|-----9--------9----7--5--|
-----7-----5-----4--4-----|--------7-----9--------7--|-----9--------9----7--5--|
-----------------------5--|--7--7-----7-----7--7-----|--7-----7--7--7----5--3--|


     PM    PM    PM PM       PM    PM PM              PM PM    PM    PM PM     
  E  E  E  E  E  E  E  E     E  E  E  E  Q    Q       E  E  E  E  E  E  E  E   
--------------------------|------------------------|--------------------------|
--------------------------|------------------------|--------------------------|
--------------------------|------------------------|--------------------------|
--------------------------|--------------5----7----|--------7-----9--------7--|
--L-----4-----5--------7--|-----5--------5----7----|--------7-----9--------7--|
--L--3-----3-----3--3-----|--3-----3--3--3----5----|--7--7-----7-----7--7-----|


  PM    PM PM                  PM    PM    PM PM       PM    PM PM            
  E  E  E  E  Q    E  E     E  E  E  E  E  E  E  E     E  E  E  E  Q    Q     
-------------------------|--------------------------|------------------------|
-------------------------|--------------------------|------------------------|
-------------------------|--------------------------|------------------------|
-----9--------9----7--5--|--------------------------|--------------5----7----|
-----9--------9----7--5--|--L-----4-----5--------7--|-----5--------5----7----|
--7-----7--7--7----5--3--|--L--3-----3-----3--3-----|--3-----3--3--3----5----|


  PM PM    PM    PM PM       PM    PM PM                  PM    PM    PM PM     
  E  E  E  E  E  E  E  E     E  E  E  E  Q    E  E     E  E  E  E  E  E  E  E   
--------------------------|-------------------------|--------------------------|
--------------------------|-------------------------|--------------------------|
--------------------------|-------------------------|--------------------------|
--------7-----9--------7--|-----9--------9----7--5--|--------------------------|
--------7-----9--------7--|-----9--------9----7--5--|--L-----4-----5--------7--|
--7--7-----7-----7--7-----|--7-----7--7--7----5--3--|--L--3-----3-----3--3-----|


  PM    PM PM              PM PM    PM    PM PM       PM    PM PM             
  E  E  E  E  Q    Q       E  E  E  E  E  E  E  E     E  E  E  E  Q    E  E   
------------------------|--------------------------|-------------------------|
------------------------|--------------------------|-------------------------|
------------------------|--------------------------|-------------------------|
--------------5----7----|--------7-----9--------7--|-----9--------9----7--5--|
-----5--------5----7----|--------7-----9--------7--|-----9--------9----7--5--|
--3-----3--3--3----5----|--7--7-----7-----7--7-----|--7-----7--7--7----5--3--|


     PM    PM    PM PM       PM    PM PM              PM PM    PM    PM PM     
  E  E  E  E  E  E  E  E     E  E  E  E  Q    Q       E  E  E  E  E  E  E  E   
--------------------------|------------------------|--------------------------|
--------------------------|------------------------|--------------------------|
--------------------------|------------------------|--------------------------|
--------------------------|--------------5----7----|--------7-----9--------7--|
--L-----4-----5--------7--|-----5--------5----7----|--------7-----9--------7--|
--L--3-----3-----3--3-----|--3-----3--3--3----5----|--7--7-----7-----7--7-----|


  PM    PM PM                  PM    PM    PM PM       PM    PM PM            
  E  E  E  E  Q    E  E     E  E  E  E  E  E  E  E     E  E  E  E  Q    Q     
-------------------------|--------------------------|------------------------|
-------------------------|--------------------------|------------------------|
-------------------------|--------------------------|------------------------|
-----9--------9----7--5--|--------------------------|--------------5----7----|
-----9--------9----7--5--|--L-----4-----5--------7--|-----5--------5----7----|
--7-----7--7--7----5--3--|--L--3-----3-----3--3-----|--3-----3--3--3----5----|


  PM PM    PM    PM PM       PM    PM PM                  PM    PM    PM PM     
  E  E  E  E  E  E  E  E     E  E  E  E  Q    E  E     E  E  E  E  E  E  E  E   
--------------------------|-------------------------|--------------------------|
--------------------------|-------------------------|--------------------------|
--------------------------|-------------------------|--------------------------|
--------7-----9--------7--|-----9--------9----7--5--|--------------------------|
--------7-----9--------7--|-----9--------9----7--5--|--L-----4-----5--------7--|
--7--7-----7-----7--7-----|--7-----7--7--7----5--3--|--L--3-----3-----3--3-----|


  PM    PM PM                       PM PM PM            PM                
  E  E  E  E  Q    Q       H        E  E  E  E     Q    E  Q    E  E  E   
------------------------|-----------------------|------------------------|
------------------------|-----------------------|------------------------|
------------------------|-----------------------|----------9----7--6--4--|
--------------5----7----|--9-----------------9--|--L-------9----7--6--4--|
-----5--------5----7----|--9-----------------9--|--L-------7----5--4--2--|
--3-----3--3--3----5----|--7--------7--7--7--7--|--L----7--7----5--4-----|


  E  E  Q.     E  E  E     E  E  E  Q    E  E  E     E  E  E  Q    E  E  E   
------------------------|-------------------------|-------------------------|
------------------------|-------------------------|-------------------------|
-----2--4------4--7--6--|--L-----9--7-------7-----|-------------------7--6--|
-----2--4------4--7--6--|--L-----9--7----4--7--5--|--L-----4--5-------7--6--|
--2--0--2------2--5--4--|--L--4--7--5----4--5--5--|--L-----4--5-------5--4--|
------------------------|----------------2-----3--|--L--3--2--3----3--------|


  E  E  E  Q.     E  E     E  E  Q.     E  E  E     E  E  E  Q    E  E  E   
------------------------|------------------------|-------------------------|
------------------------|------------------------|-------------------------|
--L-----7--6---------2--|-----2--4------4--7--6--|--L-----9--7-------7-----|
--L-----7--6---------2--|-----2--4------4--7--6--|--L-----9--7----4--7--5--|
--L--4--5--4------4--0--|--2--0--2------2--5--4--|--L--4--7--5----4--5--5--|
------------------------|------------------------|----------------2-----3--|


  E  E  E  Q    E  E  E     E  E  E  Q.     E  E     W                 
-------------------------|------------------------|-------------------|
-------------------------|------------------------|-------------------|
-------------------7--6--|--L-----7--6---------2--|-------------------|
--L-----4--5-------7--6--|--L-----7--6---------2--|-------------------|
--L-----4--5-------5--4--|--L--4--5--4------4--0--|-------------------|
--L--3--2--3----3--------|------------------------|-------------------|


  W                   W                   W                   W                 
-------------------|-------------------|-------------------|-------------------|
-------------------|-------------------|-------------------|-------------------|
-------------------|-------------------|-------------------|-------------------|
-------------------|-------------------|-------------------|-------------------|
-------------------|-------------------|-------------------|-------------------|
-------------------|-------------------|-------------------|-------------------|


                                                                 PM  
  W                   E  H.           E     E  E  E  E  E  E  E  E   
-------------------|---------------------|--------------------------|
-------------------|---------------------|--------------------------|
-------------------|------------------7--|-----9-----7-----6--------|
-------------------|------------------7--|-----9-----7-----6--------|
-------------------|------------------5--|-----7-----5-----4--4-----|
-------------------|---------------------|-----------------------5--|


  PM PM    PM    PM PM       PM    PM PM                  PM    PM    PM PM     
  E  E  E  E  E  E  E  E     E  E  E  E  Q    E  E     E  E  E  E  E  E  E  E   
--------------------------|-------------------------|--------------------------|
--------------------------|-------------------------|--------------------------|
--------------------------|-------------------------|--------------------------|
--------7-----9--------7--|-----9--------9----7--5--|--------------------------|
--------7-----9--------7--|-----9--------9----7--5--|--L-----4-----5--------7--|
--7--7-----7-----7--7-----|--7-----7--7--7----5--3--|--L--3-----3-----3--3-----|


  PM    PM PM              PM PM    PM    PM PM       PM    PM PM             
  E  E  E  E  Q    Q       E  E  E  E  E  E  E  E     E  E  E  E  Q    E  E   
------------------------|--------------------------|-------------------------|
------------------------|--------------------------|-------------------------|
------------------------|--------------------------|-------------------------|
--------------5----7----|--------7-----9--------7--|-----9--------9----7--5--|
-----5--------5----7----|--------7-----9--------7--|-----9--------9----7--5--|
--3-----3--3--3----5----|--7--7-----7-----7--7-----|--7-----7--7--7----5--3--|


     PM    PM    PM PM       PM    PM PM              PM PM    PM    PM PM     
  E  E  E  E  E  E  E  E     E  E  E  E  Q    Q       E  E  E  E  E  E  E  E   
--------------------------|------------------------|--------------------------|
--------------------------|------------------------|--------------------------|
--------------------------|------------------------|--------------------------|
--------------------------|--------------5----7----|--------7-----9--------7--|
--L-----4-----5--------7--|-----5--------5----7----|--------7-----9--------7--|
--L--3-----3-----3--3-----|--3-----3--3--3----5----|--7--7-----7-----7--7-----|


  PM    PM PM                  PM    PM    PM PM       PM    PM PM            
  E  E  E  E  Q    E  E     E  E  E  E  E  E  E  E     E  E  E  E  Q    Q     
-------------------------|--------------------------|------------------------|
-------------------------|--------------------------|------------------------|
-------------------------|--------------------------|------------------------|
-----9--------9----7--5--|--------------------------|--------------5----7----|
-----9--------9----7--5--|--L-----4-----5--------7--|-----5--------5----7----|
--7-----7--7--7----5--3--|--L--3-----3-----3--3-----|--3-----3--3--3----5----|


  PM PM    PM    PM PM       PM    PM PM                  PM    PM    PM PM     
  E  E  E  E  E  E  E  E     E  E  E  E  Q    E  E     E  E  E  E  E  E  E  E   
--------------------------|-------------------------|--------------------------|
--------------------------|-------------------------|--------------------------|
--------------------------|-------------------------|--------------------------|
--------7-----9--------7--|-----9--------9----7--5--|--------------------------|
--------7-----9--------7--|-----9--------9----7--5--|--L-----4-----5--------7--|
--7--7-----7-----7--7-----|--7-----7--7--7----5--3--|--L--3-----3-----3--3-----|


  PM    PM PM             
  E  E  E  E  Q    Q      
------------------------||
------------------------||
------------------------||
--------------5----7----||
-----5--------5----7----||
--3-----3--3--3----5----||




Duration Legend
---------------
W - whole
H - half
Q - quarter
E - 8th
S - 16th
T - 32nd
X - 64th
. - note dotted
|-n-|  - n-tuplets


Tablature Legend
----------------
L - tied note
x - dead note
g - grace note
(n) - ghost note
> - accentuded note
NH - natural harmonic
AH - artificial harmonic
TH - tapped harmonic
SH - semi harmonic
PH - pitch harmonic
h - hammer on
p - pull off
b - bend
br - bendRelease
pb - preBend
pbr - preBendRelease
brb - bendReleaseBend
\n/ - tremolo bar dip
\n - tremolo bar dive
-/n - tremolo bar Release up
/n\ - tremolo bar inverted dip
/n - tremolo bar return
-\n - tremolo bar Release down
S - shift slide
s - legato slide
/ -  slide into from below or out of upwards
\ -  slide into from above or out of downwards
~ - vibrato
W - wide vibrato
tr - trill
TP - tremolo picking
T - tapping
S - slap
P - pop
< - fade in
^ - brush up
v - brush down
Login or Register to remove this ad.

2 comments on Red Cap Assault

I only put Guitar 1 and 2 on

I only put Guitar 1 and 2 on this page but there are a few more extra guitar tracks in the ZIP file.

Thanx for posting this,it

5

Thanx for posting this,it really brings back memories.This is one of my favorite SNES games, and is my favorite song from mystic quest too.