Ads

Boss Battle Theme (Final Fantasy Mystic Quest) Guitar Tab

Submitted: Dec 20, 2007 by CpxAzn (Last updated: Dec 20, 2007)

0
Download | Listen
Game: Final Fantasy Mystic Quest
Composer(s): Y. Kawakami
Style: 2 or more instruments, Transcription
Series: Final Fantasy

AutoScroll: Slow | Medium | Fast
                              Boss Battle Theme                                 


                                                                Tabbed by CpxAzn
Guitar 1



              H         H             H         H         
E||--------|----------------------|------------15--------|
B||--------|----------------------|--13------------------|
G||*-------|----------------------|----------------------|
D||*-------|----------------------|----------------------|
A||--------|----------------------|----------------------|
E||--------|-----------15\--------|----------------------|


   E   E   E   E   E   E   E   E      Q     E   Q     E   Q      
--13--15--13--11------11----------|-----------------------------|
------------------15------15--11--|--------16--15----11--13~----|
----------------------------------|--13-------------------------|
----------------------------------|-----------------------------|
----------------------------------|-----------------------------|
----------------------------------|-----------------------------|


   W                    Q     E   Q     E   E   E      W                 
--------------------|----------------------15--13~--|--L----------------|
---L----------------|--13--------13-----------------|-------------------|
--------------------|--------12--------12-----------|-------------------|
--------------------|-------------------------------|-------------------|
--------------------|-------------------------------|-------------------|
--------------------|-------------------------------|-------------------|


  Q.     Q    E  E  E      Q     E   E   H             H         H         
--8-----------------8--|--11----13--11--10~--------|------------15--------|
---------9-------9-----|---------------------------|--13------------------|
--------------8--------|---------------------------|----------------------|
-----------------------|---------------------------|----------------------|
-----------------------|---------------------------|----------------------|
-----------------------|---------------------------|----------------------|


   E   E   E   E   E   E   E   E      Q     E   Q     E   Q      
--13--15--13--11------11----------|-----------------------------|
------------------15------15--11--|--------16--15----11--13~----|
----------------------------------|--13-------------------------|
----------------------------------|-----------------------------|
----------------------------------|-----------------------------|
----------------------------------|-----------------------------|


   W                    E   E   E   E   E   E   E   E   
--------------------|--11--10--------------------------|
---L----------------|----------11--13--------------13--|
--------------------|------------------12--------------|
--------------------|----------------------10--13------|
--------------------|----------------------------------|
--------------------|----------------------------------|


   Q.      Q.      Q        Q     E   H          E     W                 
----------13------10----|--10----11-----------------|-------------------|
--11--------------------|------------13~---------L--|--L----------------|
------------------------|---------------------------|-------------------|
------------------------|---------------------------|-------------------|
------------------------|---------------------------|-------------------|
------------------------|---------------------------|-------------------|


   W                     W                     H         H         
---------------------|---------------------|----------------------|
---------------------|---------------------|----------------------|
---------------------|--12~----------------|----------------------|
--13~----------------|---------------------|--15--------12--------|
---------------------|---------------------|----------------------|
---------------------|---------------------|----------------------|


   H         H             H.             E   E      W                  
----------------------|--------------------------|---------------------|
----------------------|--------------------------|---------------------|
----------------------|--/13~------------15--13--|--12~----------------|
--13--------15--------|--------------------------|---------------------|
----------------------|--------------------------|---------------------|
----------------------|--------------------------|---------------------|


   H         H            Q     Q     H             W                  
----------------------|-------------------------|---------------------|
----------------------|-------------------------|---------------------|
----------------------|-------------------------|---------------------|
--15--------13--------|--12----13----12~--------|--13~----------------|
----------------------|-------------------------|---------------------|
----------------------|-------------------------|---------------------|


   W                     H         H            H         H         
---------------------|----------------------|----------------------|
---------------------|----------------------|----------------------|
--12~----------------|------------12--------|--13--------15--------|
---------------------|--15------------------|----------------------|
---------------------|----------------------|----------------------|
---------------------|----------------------|----------------------|


   H.             E   E      H         H         
-------------------------|------------15--------|
--13~------------15--13--|--12------------------|
-------------------------|----------------------|
-------------------------|----------------------|
-------------------------|----------------------|
-------------------------|----------------------|


   E   E   E   E   E   E   E   E      E   E   E   E   E   E   E   E   
--13------------------------------|----------------------------------|
------12--13--15------12--15------|--16------15------13------12------|
------------------12----------12--|------12------12------12------12--|
----------------------------------|----------------------------------|
----------------------------------|----------------------------------|
----------------------------------|----------------------------------|


  Q    E  Q    E  Q       E  Q    E  E  E  Q       Q    E  Q    E  Q     
-----------------------|------------------------|-----------------------|
-----------------------|------------------------|-----------------------|
-----------------------|------------------------|-----------------------|
-----------------------|------------------------|-----------------------|
--3-------6-------4----|-----3----------3--4----|--3---------------3----|
-------3-------3-------|--3-------3--6----------|-------3--6----3-------|


  E  E  H.              Q    E  Q    E  Q       E  Q    E  E  E  Q     
---------------------|-----------------------|------------------------|
---------------------|-----------------------|------------------------|
---------------------|-----------------------|------------------------|
-----5--4------------|-----------------------|------------------------|
-----5--4------------|--3-------6-------4----|-----3----------3--4----|
--3--3--2------------|-------3-------3-------|--3-------3--6----------|


    PH                                                             
    W                    W                   Q    E  Q    E  Q     
----------------------|-------------------|-----------------------|
----------------------|-------------------|-----------------------|
----------------------|-------------------|-----------------------|
----------------------|-------------------|-----------------------|
--<>2~----------------|--L----------------|--3-------6-------4----|
----------------------|-------------------|-------3-------3-------|


  E  Q    E  E  E  Q       Q    E  Q    E  Q       E  E  H.            
------------------------|-----------------------|---------------------|
------------------------|-----------------------|---------------------|
------------------------|-----------------------|---------------------|
------------------------|-----------------------|-----5--4------------|
-----3----------3--4----|--3---------------3----|-----5--4------------|
--3-------3--6----------|-------3--6----3-------|--3--3--2------------|


  Q    E  Q    E  Q       E  Q    E  E  E  Q    99x
-----------------------|-------------------------||
-----------------------|-------------------------||
-----------------------|------------------------*||
-----------------------|------------------------*||
--3-------6-------4----|-----3----------3--4-----||
-------3-------3-------|--3-------3--6-----------||




Duration Legend
---------------
W - whole
H - half
Q - quarter
E - 8th
S - 16th
T - 32nd
X - 64th
. - note dotted
|-n-|  - n-tuplets


Tablature Legend
----------------
L - tied note
Login or Register to remove this ad.