Victory Fanfare (Final Fantasy IV) Guitar Tab

Submitted: Mar 01, 2009 by Yamato (Last updated: Mar 01, 2009)

5
Average: 5 (1 vote)
Download | Listen
Game: Final Fantasy IV
Composer(s): Nobuo Uematsu
Style: Transcription
Series: Final Fantasy

AutoScroll: Slow | Medium | Fast
                        Final Fantasy 4 Victory Fanfare                           


 
E||------------0-3-8-8--8--8---8------------|--6--------8----6--|
B||----------1----------------------9-------|--------6----------|
G||--------0---------------------------0----|-------------------|
D||------2-------------------------------4--|-----8-------------|
A||----3------------------------------------|-------------------|
E||--3--------------------------------------|-------------------|



-----8--------L---L--L-|---------------------------6--L-|
-----------------------|-----8-----6-----8-----6---6--L-|
-----9--------L---L--L-|-----9-----7-----9-----7---5--L-|
-----------------------|----10----10----10----10--------|
----10--------L---L--L-|--------------------------------|
-----------------------|--------------------------------|



--L--L-6---5----6---5----5------|----3----------------------|
--L--L-6---6----6---6----6------|----5----6----5----6--3--L-|
--L--L-5---5----5---5----5------|----5----5----5----5--3--L-|
--------------------------------|---------7----5----7--3--L-|
--------------------------------|---------------------------|
--------------------------------|---------------------------|


 
-------------------|----3----1----3----1---6--L-|
--L----------------|--L-5----3----5----3---6--L-|
--L----------------|--L-5----5----5----5---5--L-|
--L----------------|--L-------------------------|
-------------------|----------------------------|
-------------------|----------------------------|



--L--L-6---5----6---5----5------|----3----1----3----6--8--L-|
--L--L-6---6----6---6----6------|----5----3----5----6--9--L-|
--L--L-5---5----5---5----5------|----5----5----5----7--8--L-|
--------------------------------|---------------------------|
--------------------------------|---------------------------|
--------------------------------|---------------------------|


  
--L----------------|--L-3----1----3----1---6--L-|
--L----------------|--L-5----3----5----3---6--L-|
--L----------------|--L-5----5----5----5---5--L-|
-------------------|----------------------------|
-------------------|----------------------------|
-------------------|----------------------------|



--L--L-6---5----6---5----5------|----3----------------------|
--L--L-6---6----6---6----6------|----5----6----5----6--3--L-|
--L--L-5---5----5---5----5------|----5----5----5----5--3--L-|
--------------------------------|---------7----5----7--3--L-|
--------------------------------|---------------------------|
--------------------------------|---------------------------|


  
-------------------|----3----1----3----1---6--L-|
--L----------------|--L-5----3----5----3---6--L-|
--L----------------|--L-5----5----5----5---5--L-|
--L----------------|--L-------------------------|
-------------------|----------------------------|
-------------------|----------------------------|


 
--L--L-6---5----6---5----5------|----3----1----3----6--8--L-|
--L--L-6---6----6---6----6------|----5----3----5----6--9--L-|
--L--L-5---5----5---5----5------|----5----5----5----7--8--L-|
--------------------------------|---------------------------|
--------------------------------|---------------------------|
--------------------------------|---------------------------|


        
--L----------------|--L-3----1----3----1---6--L-|
--L----------------|--L-5----3----5----3---6--L-|
--L----------------|--L-5----5----5----5---5--L-|
-------------------|----------------------------|
-------------------|----------------------------|
-------------------|----------------------------|


--L--L-6---5----6---5----5------|----3----------------------|
--L--L-6---6----6---6----6------|----5----6----5----6--3--L-|
--L--L-5---5----5---5----5------|----5----5----5----5--3--L-|
--------------------------------|---------7----5----7--3--L-|
--------------------------------|---------------------------|
--------------------------------|---------------------------|


 
-------------------|----3----1----3----1---6--L-|
--L----------------|--L-5----3----5----3---6--L-|
--L----------------|--L-5----5----5----5---5--L-|
--L----------------|--L-------------------------|
-------------------|----------------------------|
-------------------|----------------------------|


 
--L--L-6---5----6---5----5------|----3----1----3----6--8--L-|
--L--L-6---6----6---6----6------|----5----3----5----6--9--L-|
--L--L-5---5----5---5----5------|----5----5----5----7--8--L-|
--------------------------------|---------------------------|
--------------------------------|---------------------------|
--------------------------------|---------------------------|


   
--L----------------|--L------------------------||
--L----------------|--L------------------------||
--L----------------|--L------------------------||
-------------------|---------------------------||
-------------------|---------------------------||
-------------------|---------------------------||






Tablature Legend
----------------
L - tied note
Login or Register to remove this ad.