The Final Battle (Final Fantasy IV) Bass Tab

Submitted: Sep 28, 2008 by auriplane

0
Download | Listen
Game: Final Fantasy IV
Composer(s): Nobuo Uematsu
Style: Transcription
Series: Final Fantasy

AutoScroll: Slow | Medium | Fast
           Final Fantasy IV (SNES) - The Final Battle BASS TAB
                          Song by Nobuo Uematsu

                 Tabbed by auriplane ([email protected])


This is the SNES version.  The DS one is the same AFAICT, except the
bass is tuned an octave lower, so use a sub pedal for that I guess.
Also, be careful of when this song goes from 4/4 time to 12/8 time.  

Four-string bass, standard tuning.  

G |------------------------|------------------------|
D |------------------------|------------------------|
A |5-----------------------|------------6-----------|
E |------------7-----------|8-----------------------|

G |------------------------|------------------------|
D |------------------------|------------------------|
A |5-----------8-----------|6-----------10----------|
E |------------------------|------------------------|

G |------------------------|---------------12-11-14-|
D |---------------------12-|13----12-15-13----------|
A |12-------13-12-15-13----|---15-------------------|
E |---14-15----------------|------------------------|

Repeat 8x:

G |------------------------|
D |------------------------|
A |10-10-9--11-11-10-12-11-|
E |------------------------|

No repeat:

G |------------------------|------------------------|
D |12----------------------|------------------------|
A |------------------12----|10----------12----13----|
E |------------------------|------------------------|

G |------------------------|------------------------|
D |------------------------|------------------------|
A |------------10----12----|13----------------------|
E |13----------------------|------------13----------|

G |------------------------|------------------------|
D |10----------------12----|13----------12----10----|
A |------------------------|------------------------|
E |------------------------|------------------------|

G |------------------------|------------------------|
D |12----------10----------|------------------------|
A |------------------------|13----------12----------|
E |------------------------|------------------------|

Repeat 8x:

G |------------------------|
D |------------------------|
A |10-10-9--11-11-10-12-11-|
E |------------------------|

Repeat 6x:

G |------12-------10-8-----|
D |---12-------10-------8--|
A |10-------8--------------|
E |------------------------|

No repeat:

G |12-------10-------9-----|------------------------|
D |------------------------|---12-------11----------|
A |------------------------|------------------13----|
E |------------------------|------------------------|

G |------14-------12-10----|------14-------12-10----|
D |---14-------12-------10-|---14-------12-------10-|
A |12-------10-------------|12-------10-------------|
E |------------------------|------------------------|

G |14-------12-------11----|---9--------8-----------|
D |------------------------|------------------10----|
A |------------------------|------------------------|
E |------------------------|------------------------|

Repeat 2x:

G |------------------------|------------------------|
D |---9-----9-----9-----9--|---9-----9-----9-----9--|
A |------------------------|------------------------|
E |7-----7-----7-----7-----|7-----7-----7-----7-----|

G |------------------------|------------------------|
D |---10----10----10----10-|---10----10----10----10-|
A |------------------------|------------------------|
E |8-----8-----8-----8-----|8-----8-----8-----8-----|

No repeat:

G |---9-----9-----9-----9--|---9-----9-----9-----9--|
D |------------------------|------------------------|
A |7-----7-----7-----7-----|7-----7-----7-----7-----|
E |------------------------|------------------------|

G |------------------------|------------------------|
D |---10----10----10----10-|---10----10----10----9--|
A |------------------------|------------------------|
E |8-----8-----8-----8-----|8-----8-----8-----7-----|

G |------------------------|------------------------|
D |7-----7-----7-----7-----|7-----7-----7-----5-----|
A |---7-----7-----7-----7--|---7-----7-----7-----5--|
E |------------------------|------------------------|

G |------------------------|------------------------|
D |3-----------------------|------------------------|
A |------------------------|------------------------|
E |------------------------|------------------------|

Repeat 2x:

G |------------|------------|------------|
D |------------|------------|------------|
A |------------|------------|------------|
E |7--7--7--7--|7--7--7--7--|7--7--7--7--|

G |------------|------------|------------|
D |------------|------------|------------|
A |------------|------------|------------|
E |8--8--8--8--|8--8--8--8--|8--8--8--8--|

No repeat:

G |------------|------------|------------|
D |------------|------10----|------8-----|
A |9-----------|10----------|8-----------|
E |------------|------------|------------|

G |------------|------------|------------|
D |------------|------------|------------|
A |6-----------|8-----------|------------|
E |------------|------9-----|10-10-10-10-|

G |------------|------------|------------|
D |------------|------------|------------|
A |------------|------------|------------|
E |10-10-10-10-|10-10-10-10-|10-10-10-10-|
Login or Register to remove this ad.