Prologue (Final Fantasy IV) Guitar Tab

Submitted: Dec 22, 2008 by Alexander (Last updated: Dec 30, 2009)

5
Average: 5 (4 votes)
Download | Listen
Game: Final Fantasy IV
Composer(s): Nobuo Uematsu
Style: Arrangement, Fingerstyle
Series: Final Fantasy

AutoScroll: Slow | Medium | Fast
From the Final Fantasy IV soundtrack. Release June 14th, 1991. Composed by Nobuo Uematsu.
Tabbed by Alexander on December 20th, 2008.
Based on Leo Lumer's performance as heard here: http://www.youtube.com/watch?v=RLvXLABGi84


  1 + 2 + 3 + 4 +  1 + 2 + 3 + 4 +
e|----------------|----------------|----------------|----------------|----------------|
B|--------0-------|3-------2---0---|--------0-------|----------------|----0---2-------|
G|----2-----------|----------------|2---1-2-----2---|2-------1-------|----------------|
D|2-----------2---|----------------|0-------1-------|2-------2---2---|4-----------4---|
A|0---------------|----------------|----------------|----------------|2-------1-------|
E|--------4-------|2-------0-------|----------------|----------------|----------------|


e|0---------------|----------------|----------------|2-------2---2---|0---------------|
B|--------3---2---|0-----2-0-------|2-------0-------|3-------3---3---|--------0---2---|
G|----------------|----3-----------|----------------|2-----2---------|2-----2----------|
D|----------------|------------2---|----------------|0---------------|2---------------|
A|0---------------|----------------|----------------|----------------|4---------------|
E|--------2-------|0-------0-------|0---------------|----------------|----------------|


e|----------------|------------0---|3-----------3---|2-----0-2-------|0---0-1-0---0-1-|
B|3---3-2-0-------|0---2---3-------|----0---3---0---|----3-----------|----------------|
G|------------3---|----------------|------0---0-----|----------------|----------------|
D|----------------|----------------|5-----------5---|4-------4-------|----------------|
A|2-------0-------|----------------|----------------|----------------|----------------|
E|----------------|3-------2-------|----------------|----------------|1-------1-------|


e|0---------------|
B|----3---2---0---|
G|----------------|
D|----------------|
A|----------------|
E|1---------------|  
Login or Register to remove this ad.

7 comments on Prologue

I am new to tabbing, so I

I am new to tabbing, so I have a question about how you play parts like these. When you show two different notes on two different strings (like with the b and e#) on top of each other, are they played at the same time? how do you play both of them simultaneously without hitting the strings in-between and after, or are you supposed to play the ones in-between and/or after? I am confused >_< , tabbing guides online do not address this. Sorry if this question is worded weird.
e|----------------|
B|--------0-------|
G|----2-----------|
D|2-----------2---|
A|0---------------|
E|--------4-------|

First: In order to display

First: In order to display tabs correctly in your comments, use the pre-tags around it. < pre > YOUR TAB < /pre>
About your question: These two notes are supposed to be played simultaneously without strumming all the strings in between, too. Of course this is not possible with a pick, so this is why we will use our fingers. The basic idea of fingerpicking is to play the melody with alternating index and middle finger while your thumb plays the bass. Of course this is just a rule, so there are some exceptions. But you'll get the idea.

Thank you, that was a huge

Thank you, that was a huge help.

the best tab i've seen so far

the best tab i've seen so far on this website! well done, man

Search the site abit more and

Search the site abit more and you'll probably find even greater ones. ; )

i've only known of this site

i've only known of this site for 3 days now, and i've already learned like 6 songs. it's ridiculous.

sooooooooo lovely thank you,

5

sooooooooo lovely thank you, memories of my first rpg so long ago