Main Theme (Final Fantasy IV) Guitar Tab

Submitted: Oct 28, 2008 by Jinx

4
Average: 4 (3 votes)
Download | Listen
Game: Final Fantasy IV
Composer(s): Nobuo Uematsu
Style: Transcription
Series: Final Fantasy

AutoScroll: Slow | Medium | Fast
Main Theme of Final Fantasy IV
Composed by: Nobuo Uematsu
Tabbed by: Jinx
http://www.brain-lag.com/


e-------------------------------------------------------
B-------0-3-2-----------0-1-3-1-0-----------------------
G-----0--------2----2-2-----------0---0-2---0-2---0-0---
D---2-------------------------------2-------------------
A-------------------------------------------------------   x2
E-------------------------------------------------------

e-----------2-0---0---------------2-0---0-0---0-3-2-3-7-5-3-5-2---
B---0-3-2-3-----3---2-----0-3-2-3-----3-------------------------3-
G---------------------2-------------------------------------------
D-----------------------------------------------------------------
A-----------------------------------------------------------------
E-----------------------------------------------------------------

e---0-3-2-3-7-5-3-5-5-8-7-8-12-10-8-10-7---7-8-10---10-8-7---
B------------------------------------------------------------
G------------------------------------------------------------
D------------------------------------------------------------
A------------------------------------------------------------
E------------------------------------------------------------
Login or Register to remove this ad.

3 comments on Main Theme

well done

5

good jod sounds great

Thanks! I'm so glad you

Thanks! I'm so glad you liked it.

Nice goin'! Sounds perfect to

Nice goin'! Sounds perfect to me! Keep rockin' \m/ >_< \m/