Ads

Into the Darkness (Final Fantasy IV) Guitar Tab

Submitted: May 29, 2008 by Shade

4.333335
Average: 4.3 (3 votes)
Download | Listen
Game: Final Fantasy IV
Composer(s): Nobuo Uematsu
Style: Arrangement
Series: Final Fantasy

AutoScroll: Slow | Medium | Fast
Into the Darkness
FFIV
Tabbed by Shade
                               
e------------0-------------------------------------------|
B------------0--4--0--3--1------------------0------------|
G--------0---0--------0-----2-----0---------0-------2----|
D--2--4---------------0--------3-----3---2------0---0----|
A--2---------------------------3---------2------0--------|
E--0-------------------------------------0---------------|

e------------0-------------------------------------------|
B------------0--4--0--3--1------------------0-------1----|
G--------0---0--------0----2------0---------0-------0----|
D--2--4---------------0-------3------3---2-------3-------|
A--2--------------------------3----------2-------0-------|
E--0-------------------------------------0---------------|

e----------------------------|
B--------0--3--1----1--------|
G--0--2-----0----2--2--------|
D--0----------------3--2--0--|
A-------------------3--------|
E----------------------------|

e---------------------1--------1--------1--3--1--3---4-----------|
B--------0--3--1--3--------2---------2---------------6-----6-----|
G--0--2-----0---------3--------3--3--------0---------5--5-----5--|
D--0--------0--------------3-------------------------6-----------|
A----------------------------------------------------------------|
E----------------------------------------------------------------|

e--4--3--2--1---1-------1---3--1--3---5---4-----------4-----|
B--6--5--4--3---2---2-------0---------7------6-----6----6---|
G--5--4--3--2---3-------3-------------7---------6-----------|
D--6--5--4--3---3---3---------------------------------------|
A-----------------------------------------------------------|
E-----------------------------------------------------------|

e--3-----------3--------2----------------||
B-----5-----5-----5-------4--------------||
G--------5-------------------4--2--0-----||
D-------------------------------------4--||
A----------------------------------------||
E----------------------------------------||

Aaaand rinse and repeat.
Login or Register to remove this ad.

5 comments on Into the Darkness

Good tab, too bad there is

3

Good tab, too bad there is no measure so its a bit hard to get the right timing.... anyways not that great song for guitar imo :)

I don't know, I think its

I don't know, I think its perfect for guitar. I'm not saying my arrangement specifically is, and I'd love to see a more complex one, but that song's utterly beautiful in my opinion, I think its the prettiest song in the game and vastly overlooked because it plays so often. I can read music, but separating tabs into measures is a new thing for me, I can do it but it takes me hours to perfect it, so the only recommendation I can make is listening to the midi or MP3 a few times between playing it so it makes sense to ya.
but thanks!

Its in 3, if that helps ;-)

Its in 3, if that helps ;-)

I gotta say I really like

I gotta say I really like the tab. A little awkward at first, but great once you get it. Thanks!

Oh I like this tab! I think

Oh I like this tab! I think it is under-rated at 3 stars. I did play the xx003x as xx323x when I read through it though :-) 1x323x works well too. My ear wanted that F in the bass.