The Dreadful Battle (Final Fantasy IV) Guitar Tab

Submitted: Jan 13, 2009 by (Last updated: Jan 13, 2009)

5
Average: 5 (1 vote)
Download | Listen
Game: Final Fantasy IV
Composer(s): Nobuo Uematsu
Style: Transcription
Series: Final Fantasy

AutoScroll: Slow | Medium | Fast
The Dreadful Battle by Nobuo Uematsu
Final Fantasy IV
Alexandre Rothier([email protected])
01/11/09


e----------------------------------------5-4---5---5----7---7-----------
B--------------------------0-1-3-5-4-6-5---------5--5-----6--6----------
G---------------2-1-5---------------------------------------------------
D-----------3-2---------------------------------------------------------
A-0-2-3-5-3-------------------------------------------------------------
E-----------------------------------------------------------------------

e-----------------------------------------------------------------------
B-0-1-3-5-8-7---7-6---6-5---5-6-7---8-7---7-6---6-5---5-6-7-------------
G-----------------------------------------------------------------------
D-----------------------------------------------------------------------
A-----------------------------------------------------------------------
E-----------------------------------------------------------------------

e-----------------------------------------------------------------------
B-----------------------------------------------------------------------
G-4---5-7---9-10---9-7----4-5---7-9---10-12---10-9----5-----------------
D-----------------------------------------------------------------------
A-----------------------------------------------------------------------
E----------------------------------------------------------------------- 2x

e-----------------------------------------------------------------------
B-----------------------------------------------------------------------
G-12-12-12-10-10-10-9-9-9-----12-12-12-10-10-10-9-9-9-------------------
D-----------------------------------------------------------------------
A-----------------------------------------------------------------------
E-----------------------------------------------------------------------

e------------------------------------12-11-13-12------------------------
B-10---11---10---9---10---11---10---------------------------------------
G-----------------------------------------------------------------------
D-----------------------------------------------------------------------
A-----------------------------------------------------------------------
E-----------------------------------------------------------------------

e-5-7-8--5-7-8--5-7-8-12-11--5-7-8-12-11--------------------------------
B-----------------------------------------------------------------------
G-----------------------------------------------------------------------
D-----------------------------------------------------------------------
A-----------------------------------------------------------------------
E-----------------------------------------------------------------------

e-8-10-11--8-10-11--8-10-11-15-14--8-10-11-15-14--12-11-10-8-5----------
B-----------------------------------------------------------------------
G-----------------------------------------------------------------------
D-----------------------------------------------------------------------
A-----------------------------------------------------------------------
E-----------------------------------------------------------------------

e-13-12-11-12--13-15-13-12----------------------------------------------
B-----------------------------------------------------------------------
G-----------------------------------------------------------------------
D-----------------------------------------------------------------------
A-----------------------------------------------------------------------
E----------------------------------------------------------------------- 2x

e-5----5-----7----7-----------------------------------------------------
B---5---5------6---6----------------------------------------------------
G-----------------------------------------------------------------------
D-----------------------------------------------------------------------
A-----------------------------------------------------------------------
E-----------------------------------------------------------------------

And back to part 2.

This is my first tab, so please, be gentle :> 

Helpful criticism will be taken in consideration.
Login or Register to remove this ad.

1 comment on The Dreadful Battle

Great Work

Nice, This is great work for a first piece