The Dreadful Battle (Final Fantasy IV) Bass/Guitar Tab

Submitted: Nov 25, 2008 by auriplane (Last updated: Apr 05, 2010)

5
Average: 5 (3 votes)
Download | Listen
Game: Final Fantasy IV
Composer(s): Nobuo Uematsu
Style: 2 or more instruments, Transcription
Series: Final Fantasy

AutoScroll: Slow | Medium | Fast
                Final Fantasy 4 - Dreadful Battle GUITAR & BASS TAB
                               Song by Nobuo Uematsu
  
                      Tabbed by auriplane ([email protected])

This is the battle with the four fiends.

There are five parts here:  Two brass parts, two strings parts, and one 
bass part.  The bass part is in drop-D tuning, and the most important 
guitar part is the first guitar.


                              1ST GUITAR (BRASS LEAD)

         E   E   E   Q       E   E   E    E   E   E   E   E   E   E   E    
      e |--------------------------------|--------------------------------|
      B |--------------------------------|--------------------------------|
      G |--------------------------------|------------10----------14--13--|
      D |------------10----------10--12--|14------13----------14----------|
      A |11--12--14----------14----------|--------------------------------|
      E |--------------------------------|--------------------------------|
      
         E   E   E   E   E   E   E   E   
      e |------------13--12--17--16--20--|
      B |13------------------------------|
      G |----13--14----------------------|
      D |--------------------------------|
      A |--------------------------------|
      E |--------------------------------|                                       
 
         W                               (W)                                   
      e |19------------------------------(19)-----------------------------|
      B |--------------------------------|--------------------------------|
      G |--------------------------------|--------------------------------|
      D |--------------------------------|--------------------------------|
      A |--------------------------------|--------------------------------|
      E |--------------------------------|--------------------------------|
      
         4/4 time                         3/4 time
         H               H                Q           H              
      e |--------------------------------|--------------------------|
      B |10------------------------------|10------------------------|
      G |--------------------------------|--------------------------|
      D |----------------7---------------|------------7-------------|
      A |--------------------------------|--------------------------|
      E |--------------------------------|--------------------------|
      
         4/4 time 
         H               H                Q       H               S S S S
      e |--------------------------------|--------------------------------|
      B |12------------------------------|12------------------------------|
      G |--------------------------------|------------------------------9h|
      D |----------------9---------------|--------9---------------7h9h10--|
      A |--------------------------------|--------------------------------|
      E |--------------------------------|--------------------------------|

         3/4 time
         Q       H                Q       H
    / e |------------------------|------------------------|
   |  B |------------------------|------------------------|
   |  G |12------11--------------|11------10--------------|
   |  D |------------------------|------------------------|
   |  A |------------------------|------------------------|
   |  E |------------------------|------------------------|
   |
x2 |                              4/4 time
   |     Q       H                Q       Q       S S S S Q
   |  e |------------------------|-------------------------------|
   |  B |------------------------|-------------------------------|
   |  G |10------9---------------|8-------9------10p9p8h9h10-----|
   |  D |------------------------|-------------------------------|
   |  A |------------------------|-------------------------------|
    \ E |------------------------|-------------------------------|

         4/4 time
         E   Q       E   Q       E   E   (E)  E   Q       Q       Q
    / e |--------------------------------|--------------------------------|
   |  B |--------------------------------|--------------------------------|
   |  G |9---9-------9---9-------9---9---(9)--9---9-------9-------9-------|
   |  D |--------------------------------|--------------------------------|
   |  A |--------------------------------|--------------------------------|
   |  E |--------------------------------|--------------------------------|
x2 |
   |     E   Q       E   Q       E   E   (E)  E   Q       Q       Q
   |  e |--------------------------------|--------------------------------|
   |  B |--------------------------------|--------------------------------|
   |  G |10--10------10--10------10--10--(10)-10--10------10------10------|
   |  D |--------------------------------|--------------------------------|
   |  A |--------------------------------|--------------------------------|
    \ E |--------------------------------|--------------------------------|

         E   E   E   E   E   E   E   E    E
    / e |----15--15------13--13------12--|12------------------------------|
   |  B |--------------------------------|--------------------------------|
x2 |  G |--------------------------------|--------------------------------|
   |  D |12----------10----------9-------|--------------------------------|
   |  A |--------------------------------|--------------------------------|
    \ E |--------------------------------|--------------------------------|
                                         
         H              (Q.)         E   (H)             (Q.)         E   
      e |--------------------------------|--------------------------------|
      B |10-------------(10)---------11--(11)------------(11)---------10--|
      G |--------------------------------|--------------------------------|
      D |--------------------------------|--------------------------------|
      A |--------------------------------|--------------------------------|
      E |--------------------------------|--------------------------------|
    
        (H)             (Q.)         E   (W)                              
      e |--------------------------------|--------------------------------|
      B (10)------------(10)---------8---(8)------------------------------|
      G |--------------------------------|--------------------------------|
      D |--------------------------------|--------------------------------|
      A |--------------------------------|--------------------------------|
      E |--------------------------------|--------------------------------|

         H              (Q.)         E   (H)             (Q.)         E   
      e |--------------------------------|--------------------------------|
      B |10-------------(10)---------11--(11)------------(11)---------10--|
      G |--------------------------------|--------------------------------|
      D |--------------------------------|--------------------------------|
      A |--------------------------------|--------------------------------|
      E |--------------------------------|--------------------------------|
    
        (W)                               Q       Q       Q       Q       
      e |--------------------------------|12------11------13------12------|
      B (10)-----------------------------|--------------------------------|
      G |--------------------------------|--------------------------------|
      D |--------------------------------|--------------------------------|
      A |--------------------------------|--------------------------------|
      E |--------------------------------|--------------------------------|

         E   E   Q       E   E   Q        E   E   E   E   E   E   E   E    
    / e |--------------------------------|----------------------------12--|
   |  B |10--12--13------10--12--13------|10--12--13--12--10--12--13------|
   |  G |--------------------------------|--------------------------------|
   |  D |--------------------------------|--------------------------------|
   |  A |--------------------------------|--------------------------------|
   |  E |--------------------------------|--------------------------------|
   |                                                             
   |     Q       E   E   E   E   Q        E   E   Q       E   E   Q        
   |  e |11------------------12--11------|--------------------------------|
   |  B |--------10--12--13--------------|10--12--13------10--12--13------|
   |  G |--------------------------------|--------------------------------|
   |  D |--------------------------------|--------------------------------|
   |  A |--------------------------------|--------------------------------|
   |  E |--------------------------------|--------------------------------|
x2 |                                                                     
   |     E   E   E   E   E   E   E   E    Q       Q       E   E   E   E    
   |  e |----------------------------12--|11------11------------------12--|
   |  B |10--12--13--12--10--12--13------|----------------10--12--13------|
   |  G |--------------------------------|--------------------------------|
   |  D |--------------------------------|--------------------------------|
   |  A |--------------------------------|--------------------------------|
   |  E |--------------------------------|--------------------------------|
   |                                                                     
   |     Q       E   Q       E   Q        E   Q       E   E   E   E   E    
   |  e |11----------10----------9-------|----8-----------7-------6-------|
   |  B |--------12----------11----------|10----------9-------8-------7---|
   |  G |--------------------------------|--------------------------------|
   |  D |--------------------------------|--------------------------------|
   |  A |--------------------------------|--------------------------------|
   |  E |--------------------------------|--------------------------------|
   |                                                                     
   |     E   E   E   E   E   E            w                                 
   |  e |5-------4-------8---5-----------|--------------------------------|
   |  B |----4-------3-------------------|--------------------------------|  
   |  G |--------------------------------|--------------------------------|  
   |  D |--------------------------------|--------------------------------|  
   |  A |--------------------------------|--------------------------------|  
   |  E |--------------------------------|--------------------------------|
   |
   |     h
   |  e |------------| 2/4 time for this measure only
   |  B |------------|  
   |  G |------------|  
   |  D |------------|  
   |  A |------------|  
    \ E |------------|

         H               H                H               H
    / e |13--------------12--------------|11--------------12--------------|
   |  B |--------------------------------|--------------------------------|
   |  G |--------------------------------|--------------------------------|
   |  D |--------------------------------|--------------------------------|
   |  A |--------------------------------|--------------------------------|
   |  E |--------------------------------|--------------------------------|
x2 |
   |     H               Q       Q        W
   |  e |13--------------15------13------|12------------------------------|
   |  B |--------------------------------|--------------------------------|
   |  G |--------------------------------|--------------------------------|
   |  D |--------------------------------|--------------------------------|
   |  A |--------------------------------|--------------------------------|
    \ E |--------------------------------|--------------------------------|
    

                            2ND GUITAR (BRASS HARMONY)

         E   E   E   Q       E   E   E    E   E   E   E   E   E   E   E    
      e |--------------------------------|--------------------------------|
      B |--------------------------------|--------------------------------|
      G |--------------------------------|--------------------------------|
      D |--------------------------------|------------3-----------7---6---|
      A |------------3-----------3---5---|7-------6-----------7-----------|
      E |4---5---7-----------7-----------|--------------------------------|
      
         E   E   E   E   E   E   E   E   
      e |--------------------5---4---8---|
      B |------------6---5---------------|
      G |5-------------------------------|
      D |----6---7-----------------------|
      A |--------------------------------|
      E |--------------------------------|                                       
 
         W                               (W)                                   
      e |10------------------------------(10)-----------------------------|
      B |--------------------------------|--------------------------------|
      G |--------------------------------|--------------------------------|
      D |--------------------------------|--------------------------------|
      A |--------------------------------|--------------------------------|
      E |--------------------------------|--------------------------------|
      
         4/4 time                         3/4 time
         H               H                Q           H              
      e |--------------------------------|--------------------------|
      B |--------------------------------|--------------------------|
      G |8-------------------------------|8-------------------------|
      D |--------------------------------|--------------------------|
      A |----------------6---------------|------------6-------------|
      E |--------------------------------|--------------------------|
      
         4/4 time 
         H               H                Q       H.  
      e |--------------------------------|--------------------------------|
      B |--------------------------------|--------------------------------|
      G |10------------------------------|10------------------------------|
      D |--------------------------------|--------------------------------|
      A |----------------8---------------|--------8-----------------------|
      E |--------------------------------|--------------------------------|

         3/4 time
         Q       H                Q       H
    / e |------------------------|------------------------|
   |  B |------------------------|------------------------|
   |  G |------------------------|------------------------|
   |  D |10------10--------------|10------10--------------|
   |  A |------------------------|------------------------|
   |  E |------------------------|------------------------|
   |
x2 |                              4/4 time
   |     Q       H                Q       Q       S S S S Q
   |  e |------------------------|-------------------------------|
   |  B |------------------------|-------------------------------|
   |  G |------------------------|-------------------------------|
   |  D |10------10--------------|10------10----10-10-10-10-10---|
   |  A |------------------------|-------------------------------|
    \ E |------------------------|-------------------------------|

         4/4 time
         E   Q       E   Q       E   E   (E)  E   Q       Q       Q
    / e |--------------------------------|--------------------------------|
   |  B |--------------------------------|--------------------------------|
   |  G |--------------------------------|--------------------------------|
   |  D |12--12------12--12------12--12--(12)-12--12------12------12------|
   |  A |--------------------------------|--------------------------------|
   |  E |--------------------------------|--------------------------------|
x2 |
   |     E   Q       E   Q       E   E   (E)  E   Q       Q       Q
   |  e |--------------------------------|--------------------------------|
   |  B |--------------------------------|--------------------------------|
   |  G |--------------------------------|--------------------------------|
   |  D |10--10------10--10------10--10--(10)-10--10------10------10------|
   |  A |--------------------------------|--------------------------------|
    \ E |--------------------------------|--------------------------------|

         E   E   E   E   E   E   E   E    E
    / e |----10--10------10--10------10--|10------------------------------|
   |  B |--------------------------------|--------------------------------|
x2 |  G |--------------------------------|--------------------------------|
   |  D |--------------------------------|--------------------------------|
   |  A |10----------8-----------7-------|--------------------------------|
    \ E |--------------------------------|--------------------------------|
                                         
         H              (Q.)         E   (H)             (Q.)         E   
      e |--------------------------------|--------------------------------|
      G |--------------------------------|--------------------------------|
      B |9--------------(9)----------9---(9)-------------(9)----------9---|
      D |--------------------------------|--------------------------------|
      A |--------------------------------|--------------------------------|
      E |--------------------------------|--------------------------------|
    
        (H)             (Q.)         E   (W)                              
      e |--------------------------------|--------------------------------|
      G |--------------------------------|--------------------------------|
      B (9)-------------(9)----------9---(9)------------------------------|
      D |--------------------------------|--------------------------------|
      A |--------------------------------|--------------------------------|
      E |--------------------------------|--------------------------------|

         H              (Q.)         E   (H)             (Q.)         E   
      e |--------------------------------|--------------------------------|
      G |--------------------------------|--------------------------------|
      B |9--------------(9)----------9---(9)-------------(9)----------9---|
      D |--------------------------------|--------------------------------|
      A |--------------------------------|--------------------------------|
      E |--------------------------------|--------------------------------|
    
        (W)                               Q       Q       Q       Q       
      e |--------------------------------|--------------------------------|
      G |--------------------------------|13------12------14------13------|
      B (9)------------------------------|--------------------------------|
      D |--------------------------------|--------------------------------|
      A |--------------------------------|--------------------------------|
      E |--------------------------------|--------------------------------|

         w                                w
    / e |--------------------------------|--------------------------------|
   |  B |--------------------------------|--------------------------------|
   |  G |--------------------------------|--------------------------------|
   |  D |--------------------------------|--------------------------------|
   |  A |--------------------------------|--------------------------------|
   |  E |--------------------------------|--------------------------------|
   |                                                             
   |     w                                E   E   Q       E   E   Q        
   |  e |--------------------------------|--------------------------------|
   |  B |--------------------------------|13--15--17------13--15--17------|
   |  G |--------------------------------|--------------------------------|
   |  D |--------------------------------|--------------------------------|
   |  A |--------------------------------|--------------------------------|
   |  E |--------------------------------|--------------------------------|
x2 |                                                                     
   |     E   E   E   E   E   E   E   E    Q       Q       E   E   E   E    
   |  e |----------------------------15--|14------14------------------15--|
   |  B |13--15--17--15--13--15--17------|----------------13--15--17------|
   |  G |--------------------------------|--------------------------------|
   |  D |--------------------------------|--------------------------------|
   |  A |--------------------------------|--------------------------------|
   |  E |--------------------------------|--------------------------------|
   |                                                                     
   |     Q       E   Q       E   Q        E   Q       E   E   E   E   E    
   |  e |14----------13----------12------|----11----------10------9-------|
   |  B |--------16----------15----------|14----------13------12------11--|
   |  G |--------------------------------|--------------------------------|
   |  D |--------------------------------|--------------------------------|
   |  A |--------------------------------|--------------------------------|
   |  E |--------------------------------|--------------------------------|
   |                                                                     
   |     E   E   E   E   E   E            w                                 
   |  e |8-------7-------12--8-----------|--------------------------------|
   |  B |----10------9-------------------|--------------------------------|  
   |  G |--------------------------------|--------------------------------|  
   |  D |--------------------------------|--------------------------------|  
   |  A |--------------------------------|--------------------------------|  
   |  E |--------------------------------|--------------------------------|
   |
   |     h
   |  e |------------| 2/4 time for this measure only
   |  B |------------|  
   |  G |------------|  
   |  D |------------|  
   |  A |------------|  
    \ E |------------|

         w                                q       Q       Q       Q
      e |--------------------------------|--------------------------------|
      B |--------------------------------|--------13------12------10------|
      G |--------------------------------|--------------------------------|
      D |--------------------------------|--------------------------------|
      A |--------------------------------|--------------------------------|
      E |--------------------------------|--------------------------------|
     
         H               Q       Q        W
      e |--------------------------------|--------------------------------|
      B |10--------------12------10------|9-------------------------------|
      G |--------------------------------|--------------------------------|
      D |--------------------------------|--------------------------------|
      A |--------------------------------|--------------------------------|
      E |--------------------------------|--------------------------------|
    
         q       Q       q       Q        q       Q       q       Q
      e |--------------------------------|--------------------------------|
      B |--------------------------------|--------------------------------|
      G |--------10--------------9-------|--------8---------------9-------|
      D |--------------------------------|--------------------------------|
      A |--------------------------------|--------------------------------|
      E |--------------------------------|--------------------------------|
      
         H               H                Q       Q       Q       Q
      e |--------------------------------|--------------------------------|
      B |10------------------------------|--------------------------------|
      G |----------------10--------------|9-------7-----------------------|
      D |--------------------------------|----------------10------9-------|
      A |--------------------------------|--------------------------------|
      E |--------------------------------|--------------------------------|
   

 
                               3RD GUITAR (STRINGS)

         E   E   E   Q       E   E   E    E   E   E   E   E   E   E   E    
      e |--------------------------------|--------------------------------|
      B |--------------------------------|--------------------------------|
      G |--------------------------------|------------10----------14--13--|
      D |------------10----------10--12--|14------13----------14----------|
      A |11--12--14----------14----------|--------------------------------|
      E |--------------------------------|--------------------------------|
      
         E   E   E   E   E   E   E   E   
      e |------------13--12--17--16--20--|
      B |13------------------------------|
      G |----13--14----------------------|
      D |--------------------------------|
      A |--------------------------------|
      E |--------------------------------|                                       
 
         W                               (W)                                   
      e |--------------------------------|--------------------------------|
      B |18------------------------------(18)-----------------------------|
      G |--------------------------------|--------------------------------|
      D |--------------------------------|--------------------------------|
      A |--------------------------------|--------------------------------|
      E |--------------------------------|--------------------------------|
      
         4/4 time                         3/4 time
         H               H                Q           H              
      e |17------------------------------|17------------------------|
      B |--------------------------------|--------------------------|
      G |----------------14--------------|------------14------------|
      D |--------------------------------|--------------------------|
      A |--------------------------------|--------------------------|
      E |--------------------------------|--------------------------|
      
         4/4 time 
         H               H                Q       H.  
      e |19------------------------------|19------------------------------|
      B |--------------------------------|--------------------------------|
      G |----------------16--------------|--------16----------------------|
      D |--------------------------------|--------------------------------|
      A |--------------------------------|--------------------------------|
      E |--------------------------------|--------------------------------|

         3/4 time
         H.                      (Q)      H
    / e |------------------------|------------------------|
   |  B |17----------------------(17)-----18--------------|
   |  G |------------------------|------------------------|
   |  D |------------------------|------------------------|
   |  A |------------------------|------------------------|
   |  E |------------------------|------------------------|
   |
x2 |                              4/4 time
   |    (Q)      H                H               H
   |  e |------------------------|-------------------------------|
   |  B (18)-----19--------------(19)-------------18-------------|
   |  G |------------------------|-------------------------------|
   |  D |------------------------|-------------------------------|
   |  A |------------------------|-------------------------------|
    \ E |------------------------|-------------------------------|

         4/4 time
         Q.          E   Q.          E    Q.          E   Q.          E
      e |----------------------------12--|13----------12------------------|
      B |12----------13--15--------------|----------------15----------12--|
      G |--------------------------------|--------------------------------|
      D |--------------------------------|--------------------------------|
      A |--------------------------------|--------------------------------|
      E |--------------------------------|--------------------------------|
  
         Q.          E   Q.          E    Q.          E   Q.          E
      e |----------------12----------13--|15----------13--12--------------|
      B |13----------15------------------|----------------------------13--|
      G |--------------------------------|--------------------------------|
      D |--------------------------------|--------------------------------|
      A |--------------------------------|--------------------------------|
      E |--------------------------------|--------------------------------|

         Q.          E   Q.          E    Q.          E   Q.          E
      e |----------------------------12--|13----------12------------------|
      B |12----------13--15--------------|----------------15----------12--|
      G |--------------------------------|--------------------------------|
      D |--------------------------------|--------------------------------|
      A |--------------------------------|--------------------------------|
      E |--------------------------------|--------------------------------|
  
         Q.          E   Q.          E    
      e |----------------12----------13--|
      B |13----------15------------------|
      G |--------------------------------|
      D |--------------------------------|
      A |--------------------------------|
      E |--------------------------------|

    These notes are all sixteenths, but it looks confusing squished together,
    so I put a little space in between each set of three.  In each space, you
    slide down the neck a little bit to the next note.

         S  S  S      S  S  S      S  S  S      S  S  S      S S  S       S  
      e |15h17p15-----13h15p13-----12h13p12-----10h12p10-----8h10p8----------|
      B |-----------------------------------------------------------------10h|
      G |--------------------------------------------------------------------|
      D |--------------------------------------------------------------------|
      A |--------------------------------------------------------------------|
      E |--------------------------------------------------------------------|


         Q.          Q.          Q       (E)  q.          S S S S Q
      e |--------------------------------|--------------------------------|
      B |12----------10----------9-------(9)--------------------9---------|
      G |--------------------------------|---------------9-10-12--12------|
      D |--------------------------------|--------------------------------|
      A |--------------------------------|--------------------------------|
      E |--------------------------------|--------------------------------|
                                         
         Q.          Q.          Q       (E)  q.          S S S S S S S S
      e |--------------------------------|----------------161312----------|
      B |12----------10----------9-------(9)--------------------1513------|
      G |--------------------------------|--------------------------161413|
      D |--------------------------------|--------------------------------|
      A |--------------------------------|--------------------------------|
      E |--------------------------------|--------------------------------|
                                         
         H              (Q.)         E   (H)             (Q.)         E   
      e |--------------------------------|--------------------------------|
      G |--------------------------------|--------------------------------|
      B |--------------------------------|--------------------------------|
      D |----------------------------12--(12)------------(12)-------------|
      A |15-------------(15)-------------|----------------------------15--|
      E |--------------------------------|--------------------------------|
    
        (H)             (Q.)         E   (W)                              
      e |--------------------------------|--------------------------------|
      G |--------------------------------|--------------------------------|
      B |--------------------------------|--------------------------------|
      D |--------------------------------|--------------------------------|
      A (15)------------(15)---------14--(14)-----------------------------|
      E |--------------------------------|--------------------------------|

         H              (Q.)         E   (H)             (Q.)         E   
      e |--------------------------------|--------------------------------|
      G |--------------------------------|--------------------------------|
      B |--------------------------------|--------------------------------|
      D |----------------------------12--(12)------------(12)-------------|
      A |15-------------(15)-------------|----------------------------15--|
      E |--------------------------------|--------------------------------|
    
        (W)                               S S S S S S S S S S S S S S S S 
      e |--------------------------------|------15------14------16------15|
      G |--------------------------------|----17------16------18------17--|
      B |--------------------------------|--17------16------18------17----|
      D |--------------------------------|17------16------18------17------|
      A (15)-----------------------------|--------------------------------|
      E |--------------------------------|--------------------------------|

         E   E   E   E   E   E   E   E    E   E   E   E   E   E   E   E
    / e |--------------------------------|--------------------------------|
   |  B |--------------------------------|--------------------------------|
   |  G |--------------------------------|--------------------------------|
   |  D |14--14--14--14--14--14--14--14--|14--14--14--14--14--14--14--14--|
   |  A |--------------------------------|--------------------------------|
   |  E |--------------------------------|--------------------------------|
   |                                                             
   |     E   E   E   E   E   E   E   E    E   E   E   E   E   E   E   E   
   |  e |--------------------------------|--------------------------------|
   |  B |--------------------------------|--------------------------------|
   |  G |--------------------------------|--------------------------------|
   |  D |13------14--14--14--14--13------|14--14--14--14--14--14--14--14--|
   |  A |--------------------------------|--------------------------------|
   |  E |--------------------------------|--------------------------------|
x2 |                                                                     
   |     E   E   E   E   E   E   E   E    E   E   E   E   E   E   E   E   
   |  e |--------------------------------|--------------------------------|
   |  B |--------------------------------|--------------------------------|
   |  G |--------------------------------|--------------------------------|
   |  D |14--14--14--14--14--14--14--14--|13------13------14--14--14--14--|
   |  A |--------------------------------|--------------------------------|
   |  E |--------------------------------|--------------------------------|
   |                                                                     
   |     Q.          Q.          Q       (E)  Q.          Q       Q        
   |  e |--------------------------------|--------------------------------|
   |  B |--------------------------------|--------------------------------|
   |  G |--------------------------------|--------------------------------|
   |  D |16----------15----------14------(14)-13----------12------11------|
   |  A |--------------------------------|--------------------------------|
   |  E |--------------------------------|--------------------------------|
   |                                                                     
   |     Q       Q       E   Q       E    Q       E   E   E   E   q         
   |  e |--------------------------------|--------------------------------|
   |  B |--------------------------------|--------------------------------|  
   |  G |--------------------------------|--------------------------------|  
   |  D |----------------------------14--|13------------------------------|  
   |  A |15------14------15--12----------|--------15--12--15--12----------|  
   |  E |--------------------------------|--------------------------------|
   |
   |     h
   |  e |------------| 2/4 time for this measure only
   |  B |------------|  
   |  G |------------|  
   |  D |------------|  
   |  A |------------|  
    \ E |------------|

         E   E   E   E   E   E   E   E    E   E   E   E   E   E   E   E   
      e |--------------------------------|--------------------------------|
      B |--------10--------------10------|--------10--------------10------|
      G |10--12------12--9---12------12--|8---12------12--9---12------12--|
      D |--------------------------------|--------------------------------|
      A |--------------------------------|--------------------------------|
      E |--------------------------------|--------------------------------|
     
         H               H                W
      e |--------------------------------|--------------------------------|
      B |10--------------13--------------|12------------------------------|
      G |--------------------------------|--------------------------------|
      D |--------------------------------|--------------------------------|
      A |--------------------------------|--------------------------------|
      E |--------------------------------|--------------------------------|
    
         H               H                H               H           
      e |--------------------------------|--------------------------------|
      B |10/22-----------9/21------------|8/20------------9/21------------|
      G |--------------------------------|--------------------------------|
      D |--------------------------------|--------------------------------|
      A |--------------------------------|--------------------------------|
      E |--------------------------------|--------------------------------|
      
         E   E   E   E   E   E   E   E    S S S S S S S S S S S S S S S S
      e |17--15--13----------------------|--12----------------------------|
      B |------------17--15--13----------|----12----15------13------12----|
      G |------------------------16--14--|13----13----13------13------13--|
      D |--------------------------------|--------15----1514----1412----14|
      A |--------------------------------|--------------------------------|
      E |--------------------------------|--------------------------------|
                                 ^   ^    ^-middle
                                  \   \ring
                                   pinky

        (Fingerings because otherwise my fingers are in the wrong place 
        to do the 16ths, you can come up with your own fingerings though)
 


                               4TH GUITAR (STRINGS)

         E   E   E   Q       E   E   E    E   E   E   E   E   E   E   E    
      e |--------------------------------|--------------------------------|
      B |--------------------------------|--------------------------------|
      G |--------------------------------|--------------------------------|
      D |--------------------------------|------------3-----------7---6---|
      A |------------3-----------3---5---|7-------6-----------7-----------|
      E |4---5---7-----------7-----------|--------------------------------|
      
         E   E   E   E   E   E   E   E   
      e |--------------------5---4---8---|
      B |------------6---5---------------|
      G |5-------------------------------|
      D |----6---7-----------------------|
      A |--------------------------------|
      E |--------------------------------|                                       
 
         W                               (W)                                   
      e |4-------------------------------(4)------------------------------|
      B |--------------------------------|--------------------------------|
      G |--------------------------------|--------------------------------|
      D |--------------------------------|--------------------------------|
      A |--------------------------------|--------------------------------|
      E |--------------------------------|--------------------------------|
      
         4/4 time                         3/4 time
         H               H                Q           H              
      e |11------------------------------|11------------------------|
      B |--------------------------------|--------------------------|
      G |----------------8---------------|------------8-------------|
      D |--------------------------------|--------------------------|
      A |--------------------------------|--------------------------|
      E |--------------------------------|--------------------------|
      
         4/4 time 
         H               H                Q       H.  
      e |13------------------------------|13------------------------------|
      B |--------------------------------|--------------------------------|
      G |----------------10--------------|--------10----------------------|
      D |--------------------------------|--------------------------------|
      A |--------------------------------|--------------------------------|
      E |--------------------------------|--------------------------------|

         3/4 time
         H.                      (Q)      H
    / e |------------------------|------------------------|
   |  B |13----------------------(13)-----13--------------|
   |  G |------------------------|------------------------|
   |  D |------------------------|------------------------|
   |  A |------------------------|------------------------|
   |  E |------------------------|------------------------|
   |
x2 |                              4/4 time
   |    (Q)      H                H               H
   |  e |------------------------|-------------------------------|
   |  B (13)-----13--------------(13)-------------13-------------|
   |  G |------------------------|-------------------------------|
   |  D |------------------------|-------------------------------|
   |  A |------------------------|-------------------------------|
    \ E |------------------------|-------------------------------|

         4/4 time
         Q.          E   Q.          E    Q.          E   Q.          E
      e |--------------------------------|--------------------------------|
      B |----------------------------13--|15----------13------------------|
      G |13----------14--16--------------|----------------16----------13--|
      D |--------------------------------|--------------------------------|
      A |--------------------------------|--------------------------------|
      E |--------------------------------|--------------------------------|
  
         Q.          E   Q.          E    Q.          E   Q.          E
      e |--------------------------------|--------------------------------|
      B |----------------13----------15--|17----------15--13--------------|
      G |14----------16------------------|----------------------------14--|
      D |--------------------------------|--------------------------------|
      A |--------------------------------|--------------------------------|
      E |--------------------------------|--------------------------------|

         Q.          E   Q.          E    Q.          E   Q.          E
      e |--------------------------------|--------------------------------|
      B |----------------------------13--|15----------13------------------|
      G |13----------14--16--------------|----------------16----------13--|
      D |--------------------------------|--------------------------------|
      A |--------------------------------|--------------------------------|
      E |--------------------------------|--------------------------------|
  
         Q.          E   Q.          E    
      e |--------------------------------|
      B |----------------13----------15--|
      G |14----------16------------------|
      D |--------------------------------|
      A |--------------------------------|
      E |--------------------------------|

    These notes are all sixteenths, but it looks confusing squished together,
    so I put a little space in between each set of three.  In each space, you
    slide down the neck a little bit to the next note.

         S  S  S      S  S  S      S  S S      S S S      S S S      S  
      e |12h13p12-----10h12p10-----8h10p8------7h8p7------5h7p5--------|
      B |------------------------------------------------------------6h|
      G |--------------------------------------------------------------|
      D |--------------------------------------------------------------|
      A |--------------------------------------------------------------|
      E |--------------------------------------------------------------|


         Q.          Q.          Q       (E)  q.          S S S S Q
      e |--------------------------------|--------------------------------|
      B |8-----------6-----------5-------(5)--------------------6---------|
      G |--------------------------------|----------------6-7-9---9-------|
      D |--------------------------------|--------------------------------|
      A |--------------------------------|--------------------------------|
      E |--------------------------------|--------------------------------|
                                         
         Q.          Q.          Q       (E)  q.          S S S S S S S S
      e |--------------------------------|----------------12108-----------|
      B |8-----------6-----------5-------(5)--------------------12109-----|
      G |--------------------------------|----------------------------109-|
      D |--------------------------------|--------------------------------|
      A |--------------------------------|--------------------------------|
      E |--------------------------------|--------------------------------|

         H              (Q.)         E   (H)             (Q.)         E   
      e |--------------------------------|--------------------------------|
      G |--------------------------------|--------------------------------|
      B |--------------------------------|--------------------------------|
      D |7--------------(7)----------8---(8)-------------(8)----------7---|
      A |--------------------------------|--------------------------------|
      E |--------------------------------|--------------------------------|
    
        (H)             (Q.)         E   (W)                              
      e |--------------------------------|--------------------------------|
      G |--------------------------------|--------------------------------|
      B |--------------------------------|--------------------------------|
      D (7)-------------(7)--------------|--------------------------------|
      A |----------------------------10--(10)-----------------------------|
      E |--------------------------------|--------------------------------|

         H              (Q.)         E   (H)             (Q.)         E   
      e |--------------------------------|--------------------------------|
      G |--------------------------------|--------------------------------|
      B |--------------------------------|--------------------------------|
      D |7--------------(7)----------8---(8)-------------(8)----------7---|
      A |--------------------------------|--------------------------------|
      E |--------------------------------|--------------------------------|
    
        (W)                               Q       Q       Q       Q
      e |--------------------------------|--------------------------------|
      G |--------------------------------|--------------------------------|
      B |--------------------------------|9-------8-------10------9-------|
      D (7)------------------------------|--------------------------------|
      A |--------------------------------|--------------------------------|
      E |--------------------------------|--------------------------------|

         E   E   E   E   E   E   E   E    E   E   E   E   E   E   E   E
    / e |--------------------------------|--------------------------------|
   |  B |--------------------------------|--------------------------------|
   |  G |--------------------------------|--------------------------------|
   |  D |10--10--10--10--10--10--10--10--|10--10--10--10--10--10--10--10--|
   |  A |--------------------------------|--------------------------------|
   |  E |--------------------------------|--------------------------------|
   |                                                             
   |     E   E   E   E   E   E   E   E    E   E   E   E   E   E   E   E   
   |  e |--------------------------------|--------------------------------|
   |  B |--------------------------------|--------------------------------|
   |  G |--------------------------------|--------------------------------|
   |  D |9-------10--10--10--10--9-------|10--10--10--10--10--10--10--10--|
   |  A |--------------------------------|--------------------------------|
   |  E |--------------------------------|--------------------------------|
x2 |                                                                     
   |     E   E   E   E   E   E   E   E    E   E   E   E   E   E   E   E   
   |  e |--------------------------------|--------------------------------|
   |  B |--------------------------------|--------------------------------|
   |  G |--------------------------------|--------------------------------|
   |  D |10--10--10--10--10--10--10--10--|9-------9-------10--10--10--10--|
   |  A |--------------------------------|--------------------------------|
   |  E |--------------------------------|--------------------------------|
   |                                                                     
   |     Q.          Q.          Q       (E)  Q.          Q       Q        
   |  e |--------------------------------|--------------------------------|
   |  B |--------------------------------|--------------------------------|
   |  G |--------------------------------|--------------------------------|
   |  D |13----------12----------11------(11)-10--------------------------|
   |  A |--------------------------------|----------------14------13------|
   |  E |--------------------------------|--------------------------------|
   |                                                                     
   |     Q       Q       E   Q       E    Q       E   E   E   E   q         
   |  e |----------------------------12--|11------------------------------|
   |  B |----------------13--10----------|--------13--10--13--10----------|  
   |  G |--------------------------------|--------------------------------|  
   |  D |--------------------------------|--------------------------------|  
   |  A |12------11----------------------|--------------------------------|  
   |  E |--------------------------------|--------------------------------|
   |
   |     h
   |  e |------------| 2/4 time for this measure only
   |  B |------------|  
   |  G |------------|  
   |  D |------------|  
   |  A |------------|  
    \ E |------------|

         E   E   E   E   E   E   E   E    E   E   E   E   E   E   E   E   
      e |--------------------------------|--------------------------------|
      B |--------------------------------|--------------------------------|
      G |--------10--------------9-------|--------8---------------9-------|
      D |7---10------10--7---10------10--|7---10------10--7---10------10--|
      A |--------------------------------|--------------------------------|
      E |--------------------------------|--------------------------------|
     
         H               H                W
      e |--------------------------------|--------------------------------|
      B |----------------10--------------|9-------------------------------|
      G |10------------------------------|--------------------------------|
      D |--------------------------------|--------------------------------|
      A |--------------------------------|--------------------------------|
      E |--------------------------------|--------------------------------|
    
         H               H                H               H           
      e |--------------------------------|--------------------------------|
      B |--------------------------------|--------------------------------|
      G |10/22-----------9/21------------|8/20------------9/21------------|
      D |--------------------------------|--------------------------------|
      A |--------------------------------|--------------------------------|
      E |--------------------------------|--------------------------------|
      
         E   E   E   E   E   E   E   E    S S S S S S S S S S S S S S S S
      e |13--12--------------------------|--------------------------------|
      B |--------15--13--12--------------|--12------12--------------------|
      G |--------------------14--13------|----13------13----13------13----|
      D |----------------------------15--|14----1412----12----14------1412|
      A |--------------------------------|----------------15----1514------|
      E |--------------------------------|--------------------------------|





                                BASS PART (DROP-D TUNING)

         E E E E E E E E  E E E E E E E E  E E E E E E E E
      G |2-----2-----2---|--2-----2---2---|2-----2-----2---|
      D |----------------|----------------|----------------|
      A |--0-0---0-0---0-|0---0-0---0---0-|--0-0---0-0---0-|
      D |----------------|----------------|----------------|

         H.          Q    H       H
      G |------------4---|5-------1-------|
      D |2---------------|----------------|
      A |----------------|----------------|
      D |----------------|----------------|

         4/4 time         3/4 time     4/4 time 
                                                                         
         H       H        Q   H        H       H        Q   H       Q
      G |2---------------|2-----------|4---------------|4---------------|
      D |----------------|------------|----------------|----------------|
      A |--------0-------|----0-------|--------2-------|----2-------7\2-|
      D |----------------|------------|----------------|----------------|

         3/4 time                               4/4 time  
                                                                  
         E E E E E E  E E E E E E  E E E E E E  E E E E E E E E  
    / G |------------|------------|------------|----------------|
x2 |  D |------------|------------|------------|----------------|
   |  A |0-0-0-0-0-0-|0-0-0-0-0-0-|0-0-0-0-0-0-|0-0-0-0-0-0-0-0-|
    \ D |------------|------------|------------|----------------|

         E E E E E E E E  E E E E E E E E  E E E E E E E E  E E E E E E E E  
    / G |----------------|----------------|----------------|----------------|
x2 |  D |2---2---2---2---|2---2---2---2---|3---3---3---3---|3---3---3---3---|
   |  A |--2---2---2---2-|--2---2---2---2-|--3---3---3---3-|--3---3---3---3-|
    \ D |----------------|----------------|----------------|----------------|

         E E E E E E E E  E
    / G |----------------|----------------|
   |  D |5-5-5-3-3-3-2-2-|2---------------|
x2 |  A |----------------|----------------|
    \ D |----------------|----------------|

         Q   Q   Q   Q   
    / G |----------------|
   |  D |----------------|
x8 |  A |0---0---0---0---|
    \ D |----------------|

         E E E Q   E E E  E E E Q   E E E  Q   E E E E Q    
    / G |----------------|----------------|----------------|
   |  D |----5-4---2-1-2-|----5-4---2-1-2-|--------2-5-4---|
   |  A |0-0-------------|0-0-------------|2---0-3---------|
   |  D |----------------|----------------|----------------|
   |
   |     E E E Q   E E E  E E E Q   E E E  Q   Q   E E E E  
   |  G |----------------|----------------|----------------|
   |  D |----5-4---2-1-2-|----5-4---2-1-2-|------------2-5-|
   |  A |0-0-------------|0-0-------------|2---2---0-3-----|
   |  D |----------------|----------------|----------------|
x2 |
   |     Q.    Q.    Q    E Q.    Q   Q    Q   Q   E Q   E  Q   E E E Q.     
   |  G |----------------|----------------|----------------|----------------|
   |  D |----------------|----------------|--------------2-|1---------------|
   |  A |2-----1-----0---(0)--------------|--------3-0-----|----3-0-3-0-----|
   |  D |----------------|--6-----5---4---|3---2-----------|----------------|
   |
   |     q   Q 
   |  G |--------| 2/4 time for this measure only
   |  D |--------|
   |  A |----7\0-|
    \ D |--------|

         E E E Q   E E E  E E E Q   E E E  Q.    Q   E E E  E E E E E E E E  
      G |----------------|----------------|----------------|----------------|
      D |------3-----3---|------3-----3-2-|0---------------|----2---0-2-0---|
      A |----3-----3---3-|----3-----3-----|----------------|----------------|
      D |3-3-------------|3-3-------------|------0---0-2-3-|2-2---2-------2-|
    
         E E Q   E E E E  E E Q   E E Q    E E E E E E E E  E E E E E E E E  
      G |----------------|----------------|----------------|----------------|
      D |----3-------2---|----1-------2---|----------------|----2-----2-----|
      A |----------------|----------------|----5-----5-----|----------------|
      D |3-3-----2-2-----|1-1-----2-2-----|0-0---0-0---0-0-|2-2---2-2---2-2-|
    

Login or Register to remove this ad.

1 comment on The Dreadful Battle

Great tab

5

I learnt the bass, and it was spot on. Really good tab =)