Ads

Terra (Blitzwater version) (Final Fantasy VI) Guitar Tab

Submitted: Apr 16, 2008 by Maxinger (Last updated: Jun 27, 2010)

5
Average: 5 (4 votes)
Download | Listen
Game: Final Fantasy VI
Composer(s): Nobuo Uematsu
Style: Fingerstyle, Transcription
Series: Final Fantasy

AutoScroll: Slow | Medium | Fast
Terra's theme
Final Fantasy VI
Composed by Nobuo Uematsu
Tabbed by Maximilian Gruber ([email protected])

Transcription made by Blitzwater, in order to find out the exact 
timing, just watch his youtube performance: 

http://youtube.com/watch?v=-rw8LCrWUH0


e|---------0----------------------------------------|
B|---0---1---1--------------0----0------------------|
G|-2------------2--------2----2---------------------|
D|----------------2----2------------2-------2-------|
A|-------0----------0-----------------2---2---------|
E|-------------------------------0------0-----------|

|--------0---------------------------0---------|
|---0--1---1-------------0---0---------0-------|
|-2-----------2-------2----2---0---0-----0-----|
|---------------2---2------------2---------2---|
|------0----------0--------------------------2-|
|----------------------------0-----------------|

|------0h3-0-----------0------------------------------|
|-1h3--------1-------1---1----------3-1-3-------------|
|--------------0---0-------0------0--------0----------|
|----------------2-----------2---------------0------0-|
|------3-----------------------3------------------2---|
|---------------------------------------3------3------|

|----------------------------------------------------------|
|-1p0------------------0-------------1p0-----------------0-|
|------2-------2-----2---0-------0--------2-------2--0-2---|
|--------3---3---3---------2---2------------2---2----------|
|----------3-------3---------2------------0---0------------|
|------1-------1-------0-----------------------------------|

|-----------------0---------------------------------------------|
|-1-------1---------1-----1---------------------0-------1-------|
|---0---0---0---0-----0-----0---2-------2---------2---2---2---2-|
|-----2-------2---------2---------3---3---3---3-----3-------3---|
|-3---------------3-----------------3-------3-------------------|
|-------------------------------1-------------------------------|

|-----------------1-----------------------------------------------|
|-3-------3---------3-----3-------0-------0-------1-------3-------|
|---2---2---2---2-----2-----2-------0---0---0---0---0---0---0---0-|
|-0---0-------0---------0-----0-------0-------0-------0-------0---|
|-----------------------------------------------------------------|
|---------------------------------3-------------------------------|

|--0-------0-------3-------0---------------------------------0-|
|----0---0---0---0---0---0---0---0--1-------1-------3----------|
|------0-------0-------0-------0------2---2---2---2---2---2----|
|---------------------------------------2-------2-------2------|
|-----------------------------------0--------------------------|
|--0-----------------------------------------------------------|

|----------------------------------|
|-3-------3--------1-------1-------|
|-2-2---2---2-1-2--2-2---2---------|
|-0---0----------------2-----2-1-2-|
|------------------0---------------|
|----------------------------------|

|-------------------------------------|
|-0-------0-------0-------0-----------|
|---1---1---1---1---1---1---1---1-----|
|-----0-------0-------0-------0-------|
|-------------------------------------|
|-------------------------------------|

|-5-------5-------5-----------------5-------5-------5-------|
|---5-------5---5---5---5----5---5----5---5---5---5---5---5-|
|-----5-5-----5-------5-----5---5-------5-------5-------5---|
|--------------------------9---9----------------------------|
|-----------------------------------------------------------|
|-5---------------------------------5-----------------------|

|----------5-------5-------5-----------------5---------------5-|
|---5---5----5---5---5---5---5---5----5---5----5-----------5---|
|--5---5-------5-------5-------5-----5---5-------5-------5-----|
|-9---9-----------------------------9---9----------5h7---------|
|------------------------------------------------------7-------|
|----------5---------------------------------5-----------------|

|--------0------------------------------|
|---0--1---1------------0---0-----------|
|-2----------2-------2----2-------------|
|--------------2---2----------2-------2-|
|------0---------0--------------2---2---|
|---------------------------0-----0-----|

|--------0--------------------------0---------------0------------|
|---0--1---1-1----------0---0---------0-----------0--------------|
|-2------------------2----2---0---0-----0-------0----------------|
|--------------2---2------------2---------2---2------------------|
|------0---------0--------------------------2--------------------|
|---------------------------0------------------------------------|

|------0h3-0-----------0------------------------------|
|-1h3--------1-------1---1----------3-1-3-------------|
|--------------0---0-------0------0--------0----------|
|----------------2-----------2---------------0------0-|
|------3-----------------------3------------------2---|
|---------------------------------------3------3------|

|----------------------------------------------------------|
|-1p0------------------0-------------1p0-----------------0-|
|------2-------2-----2---0-------0--------2-------2--0-2---|
|--------3---3---3---------2---2------------2---2----------|
|----------3-------3---------2------------0---0------------|
|------1-------1-------0-----------------------------------|

|-----------------0---------------------------------------------|
|-1-------1---------1-----1---------------------0-------1-------|
|---0---0---0---0-----0-----0---2-------2---------2---2---2---2-|
|-----2-------2---------2---------3---3---3---3-----3-------3---|
|-3---------------3-----------------3-------3-------------------|
|-------------------------------1-------------------------------|

|-----------------1-----------------------------------------------|
|-3-------3---------3-----3-------0-------0-------1-------3-------|
|---2---2---2---2-----2-----2-------0---0---0---0---0---0---0---0-|
|-0---0-------0---------0-----0-------0-------0-------0-------0---|
|-----------------------------------------------------------------|
|---------------------------------3-------------------------------|

|--0-------0-------3-------0---------------------------------0-|
|----0---0---0---0---0---0---0---0--1-------1-------3----------|
|------0-------0-------0-------0------2---2---2---2---2---2----|
|---------------------------------------2-------2-------2------|
|-----------------------------------0--------------------------|
|--0-----------------------------------------------------------|

|----------------------------------|
|-3-------3--------1-------1-------|
|-2-2---2---2-1-2--2-2---2---------|
|-0---0----------------2-----2-1-2-|
|------------------0---------------|
|----------------------------------|

|-------------------------------------|
|-0-------0-------0-------0-----------|
|---1---1---1---1---1---1---1---1-----|
|-----0-------0-------0-------0-------|
|-------------------------------------|
|-------------------------------------|

|-5-------5-------5-----------------5-------5-------5-------|
|---5-------5---5---5---5----5---5----5---5---5---5---5---5-|
|-----5-5-----5-------5-----5---5-------5-------5-------5---|
|--------------------------9---9----------------------------|
|-----------------------------------------------------------|
|-5---------------------------------5-----------------------|

|----------5-------5-------5-----------------5-------------5--5-|
|---5---5----5---5---5---5---5---5----5---5----5---------5----5-|
|--5---5-------5-------5-------5-----5---5-------5-----5------5-|
|-9---9-----------------------------9---9----------7----------7-|
|----------------------------------------------------7--------7-|
|----------5---------------------------------5----------------5-|
Login or Register to remove this ad.

2 comments on Terra (Blitzwater version)

i liked!

5

i liked!

Perfect!

5

Perfect!