Terra (Final Fantasy VI) Guitar Tab

Submitted: Oct 03, 2007 by archard

3.77778
Average: 3.8 (9 votes)
Download | Listen
Game: Final Fantasy VI
Composer(s): Nobuo Uematsu
Style: Transcription
Series: Final Fantasy

AutoScroll: Slow | Medium | Fast
Final Fantasy 3 SNES (FF6)
Overworld theme
Composed by Nobuo Uematsu
Tabbed by Veovis

-----------------------------------------------------------------
-----------------------------------------------------------------
-----------2------------------------------2-----------------2----
--0--2--3----3-----2--0--2--------0--2--3-----3-----2--0--2------
----------------------------0------------------------------------
-----------------------------------------------------------------

--------------------------------------------------------------
----------1---------------------------------------------------
----0--2-----2-----0-----0------------------------------------
--3--------------------3-----------3--2--0-----3--2--0--------
----------------------------3---------------------------------
--------------------------------------------------------------
Login or Register to remove this ad.

5 comments on Terra

Miss more than half the

1

Miss more than half the song, don't really sound like the original on SNES... well it's just not ok.

Not bad at all . . .

3

Not bad at all . . .

i like the bass in this

4

i like the bass in this piece

i like it ! :D

5

Good job man :D i like the lower version of this :D

Very nice

I am very new to guitar and this song was easy to pick up and play and sounds very much like the song from the Video game.

'Thx for making it!