Shadow (Final Fantasy VI) Guitar Tab

Submitted: Oct 03, 2007 by archard

3
Average: 3 (5 votes)
Download | Listen
Game: Final Fantasy VI
Composer(s): Nobuo Uematsu
Style: Transcription
Series: Final Fantasy

AutoScroll: Slow | Medium | Fast
Shadow's theme
Final Fantasy VI
Composed by Nobuo Uematsu
Tabbed by Ky

e----------------------------
B----------------------------
G--0~--0-0-0~----0~--0-0-0~--
D----------------------------
A----------------------------
E----------------------------

e---------------------------
B---------------------------
G----6---6-4---------2------
D--4---------7-6-4-6---2-4--
A---------------------------
E---------------------------

e--------------------------
B--------------------------
G----6---6-4---------------
D--4---------7-6-4-6--2-4--
A--------------------2-----
E--------------------------

e------------------------------------
B------------------------------------
G--6-9----6-8/9-8-----9-8-6-8----4-6-
D------------------------------6-----
A------------------------------------
E------------------------------------

e---------------------------
B---------------------------
G----6---6-4---------2------
D--4---------7-6-4-6---2-4--
A---------------------------
E---------------------------
Login or Register to remove this ad.

2 comments on Shadow

Very Nice, thank you.

5

Very Nice, thank you.

Yeah sounds cool

5

Yeah sounds cool