Ads

Setzer's Theme (Final Fantasy VI) Guitar Tab

Submitted: Mar 22, 2008 by Zelos (Last updated: Oct 07, 2009)

3.5
Average: 3.5 (2 votes)
Download | Listen
Game: Final Fantasy VI
Composer(s): Nobuo Uematsu
Style: Transcription
Series: Final Fantasy

AutoScroll: Slow | Medium | Fast
Setzer's Theme
~Final Fantasy VI~
Composed by: Nobuo Uematsu
Arranged by: Zelos                                 


Guitar 
BPM = 140 
Difficulty: Medium - Hard (I guess the fast 
parts require some training on acoustic guitars)



                                      |-3-| |-3-|                      
     W                   H.           S S S S S S    W                 
E||-------------------|---------------0-1-2-3-5-7-|--8----------------|
B||-------------------|---------------------------|-------------------|
G||-------------------|---------------------------|-------------------|
D||-------------------|---------------------------|-------------------|
A||-------------------|---------------------------|-------------------|
E||-------------------|---------------------------|-------------------|


  W                   H        H           H         H         
-------------------|--------------------|--6--------10--------|
--8----------------|--L--------6--------|---------------------|
-------------------|--------------------|---------------------|
-------------------|--------------------|---------------------|
-------------------|--------------------|---------------------|
-------------------|--------------------|---------------------|


  W                   H        S  S S  S S S  S  S  
--8----------------|---------------------7-8-10-12-|
-------------------|--8-------------8-10-----------|
-------------------|-----------9-10----------------|
-------------------|-------------------------------|
-------------------|-------------------------------|
-------------------|-------------------------------|


   S  S  S Q.     S  S  S  S  S  S S     S  S  S E.   S  S  S E.   S  S  S S  
--13-13-13----------13-13-13-13-13---|--13-13-13-----13-13-13-----13-13-13---|
-------------------------------------|---------------------------------------|
-------------------------------------|---------------------------------------|
-------------------------------------|---------------------------------------|
-------------------------------------|---------------------------------------|
-------------------------------------|---------------------------------------|


    H        Q     Q       H.           Q        H         H         
|------------8----------|--------------------|----------------------|
|-----------------10----|--8-----------------|--11--------10--------|
|*--9-------------------|---------------9----|----------------------|
|*----------------------|--------------------|----------------------|
|-----------------------|--------------------|----------------------|
|-----------------------|--------------------|----------------------|


  H         H           H.            Q       Q    Q    Q    Q     
---------------------|---------------------|-----------------8----|
--8------------------|---------------------|--8---------8---------|
-----------10--------|--9------------10----|-------9--------------|
---------------------|---------------------|----------------------|
---------------------|---------------------|----------------------|
---------------------|---------------------|----------------------|


  H        H           S S S S S S S  S S  S  S  S  S  S  S  S  
--6-----------------|--------6-0---6-10------10-13----10-13-18-|
-----------6--------|--3-5-6-----6------6-11-------11----------|
--------------------|------------------------------------------|
--------------------|------------------------------------------|
--------------------|------------------------------------------|
--------------------|------------------------------------------|


  H        Q     Q       H.           Q        H        H         
--0--------8----------|--------------------|------------8--------|
----------------10----|--8-----------------|--11-----------------|
----------------------|---------------9----|---------------------|
----------------------|--------------------|---------------------|
----------------------|--------------------|---------------------|
----------------------|--------------------|---------------------|


  W                   W                   W                 
--9----------------|--8----------------|-------------------|
-------------------|-------------------|--8----------------|
-------------------|-------------------|-------------------|
-------------------|-------------------|-------------------|
-------------------|-------------------|-------------------|
-------------------|-------------------|-------------------|


   E   S S S S  S S  E   S S S S  S S  
--------------------------------------|
--11--10---8--------11--10---8--------|
---------------10----------------10---|
--------------------------------------|
--------------------------------------|
--------------------------------------|


   E   S S S S  S S  S S  S S  S  S S  S     H        E   E   E   E   
------------------------------------8-10-|--12--------L--10----------|
--11--10---8----------------8-10-11------|-------------------13--10--|
---------------10------9-10--------------|---------------------------|
--------------------12-------------------|---------------------------|
-----------------------------------------|---------------------------|
-----------------------------------------|---------------------------|


   Q     Q     Q     Q       W                   W                 
--------------10----12----|--L----------------|--L----------------|
--12----13----------------|-------------------|-------------------|
--------------------------|-------------------|-------------------|
--------------------------|-------------------|-------------------|
--------------------------|-------------------|-------------------|
--------------------------|-------------------|-------------------|


   H         H           Q     Q     H         
------------10--------|--9--------------------|
--12------------------|-------12----10--------|
----------------------|-----------------------|
----------------------|-----------------------|
----------------------|-----------------------|
----------------------|-----------------------|


  S S S S S S S S S S S S S S S S    S S S S S S  S S S S S S S S  S S  
--5-------5---8---5-------5---8---|--7-------7---10---7-------7---10---|
------6---------------6-----------|------8----------------8------------|
----------------------------------|------------------------------------|
----------------------------------|------------------------------------|
----------------------------------|------------------------------------|
----------------------------------|------------------------------------|


  S S S S S S  S S S S S S S S  S S     S S  S S  S S  S S  S S  S S  S S  S S  
--8-------8---11---8-------8---11---|--10--------10---13---10--------10---13---|
------9----------------9------------|-------11------------------11-------------|
------------------------------------|------------------------------------------|
------------------------------------|------------------------------------------|
------------------------------------|------------------------------------------|
------------------------------------|------------------------------------------|


   E   S S  S S  S S  E   S S  S S  S S  
----------------------------------------|
--13--12---10--------13--12---10--------|
----------------12-----------------12---|
----------------------------------------|
----------------------------------------|
----------------------------------------|


   E   S S  S S  S S  E   S S  S S  S S  
----------------------------------------|
--13--12---10--------13--12---10--------|
----------------12-----------------12---|
----------------------------------------|
----------------------------------------|
----------------------------------------|


   E   S S  S S  S S  E   S S  S S  S S  
----------------------------------------|
--13--12---10--------13--12---10--------|
----------------12-----------------12---|
----------------------------------------|
----------------------------------------|
----------------------------------------|


   E   S S  S S  S S  E   S S  S S  S S    
--15--13---12--------15--13---12---------||
----------------15-----------------15----||
----------------------------------------*||
----------------------------------------*||
-----------------------------------------||
-----------------------------------------||




Duration Legend
---------------
W - whole
H - half
Q - quarter
E - 8th
S - 16th
. - note dotted
|-n-|  - n-tuplets


Tablature Legend
----------------
L - tied note
Login or Register to remove this ad.

1 comment on Setzer's Theme

my acoustic's limit is 12th

my acoustic's limit is 12th fret, hehe. its a medium sized folk style guitar. it'd sound okay on the electric, but i have no amp, it kinda defeats the purpose. but that helped me out in making one in a different key, definitely.