Relm's Theme (Final Fantasy VI) Guitar Tab

Submitted: Oct 03, 2007 by archard

4
Average: 4 (5 votes)
Download | Listen
Game: Final Fantasy VI
Composer(s): Nobuo Uematsu
Style: Transcription
Series: Final Fantasy

AutoScroll: Slow | Medium | Fast
Relm's Theme
Final Fantasy 6
Composed by Nobuo Uematsu

2/17/06

Flute

e--14-13-----------------------------------
B--------14-12----------------12-14--------
G--------------15----------15-------10-11--
D------------------------------------------
A------------------------------------------
E------------------------------------------

e--14-13-----------------------------
B--------14-12------12-14------------
G--------------15-----------10---11--
D------------------------------------
A------------------------------------
E------------------------------------

e--14-13-----------
B--------14-12-----
G--------------15--
D------------------
A------------------
E------------------

e------------------------------------
B-----12-14-----------------12---11--
G--15-------10-11---11-13------------
D------------------------------------
A------------------------------------
E------------------------------------

e-----------------------9-------
B----------------9-11-----------
G--8-8-10-11----------------10--
D-------------------------------
A-------------------------------
E-------------------------------

e-------------------------
B-------------------------
G--10-11-----------10-----
D--------13-----13----11--
A-------------------------
E-------------------------

e------------------9-13-13--
B-------------11------------
G--11---11-13---------------
D---------------------------
A---------------------------
E---------------------------

e--13-14-----------------------------
B--------14-12-11------12-11---------
G-------------------13-----------13--
D------------------------------------
A------------------------------------
E------------------------------------

Repeat

BagPipes (plays twice)

e--13h14p13------11--------------
B-----------14------12-14--------
G-------------------------13h15--
D--------------------------------
A--------------------------------
E--------------------------------

Harp (plays repeatedly)

e------2--
B----2----
G---------
D--4------
A---------
E---------
Login or Register to remove this ad.

2 comments on Relm's Theme

great tab!

great tab!

Blehhhh

5

Class