Login or Register to remove this ad.

Kids Run Through The City Corner (Final Fantasy VI) Guitar Tab

Submitted: Apr 27, 2008 by Kabukibear (Last updated: Oct 16, 2009)

4.791665
Average: 4.8 (24 votes)
Download | Listen
Game: Final Fantasy VI
Composer(s): Nobuo Uematsu
Style: Arrangement, Fingerstyle
Series: Final Fantasy

AutoScroll: Slow | Medium | Fast
Kids Run Through The City Corner                         
~Final Fantasy VI~
Composed by: Nobuo Uematsu
Arranged by: Justin Lincoln

bpm=110
                      1st time: mp 
                      2nd time: mf
     H        E  E       E  E  E  E  E  E     E  E  Q    E  E   
E||-----------------||---------------------|-------------------|
B||-----------------||---0-----------0-----|-------------------|
G||-----------0--2--||*--------2-----------|--0----------0--2--|
D||-----------------||*-----0-----0-----0--|--------2----------|
A||-----------------||---------------------|-----2-------2-----|
E||-----------------||---3-----------2-----|--0----------------|


  E  E  E  E  E  E     E  E  Q    Q       E  E  E  E  E  E   
--------------------|------------------|--0-----------------|
--0-----------0--1--|--3---------------|--------3-----1-----|
--------0--2--------|-----0-------0----|-----0-----0-----0--|
-----0--------------|--------0---------|--------------------|
--------------0-----|--2---------------|--3-----------2-----|
--3-----------------|------------------|--------------------|


  E  E  E  E  E  E     E  E  Q    Q       E  E  Q    E  E   
--------------------|------------------|-------------------|
--1--------0--0--1--|------------------|-------------------|
--------2-----------|--2---------------|--------5----0--2--|
-----2--------2-----|--------3---------|-----4-------------|
--0-----------------|-----3-------3----|--5----------------|
--------------------|--1---------------|-------------------|


  E  E  E  E  E  E     E  E  Q    E  E     E  E  E  E  E  E   
--------------------|-------------------|--------------------|
--0-----------0-----|-------------------|--0-----------0--1--|
--------2-----------|--0----------0--2--|--------0--2--------|
-----0-----0-----0--|--------2----------|-----0--------------|
--------------------|-----2-------2-----|--------------0-----|
--3-----------2-----|--0----------------|--3-----------------|


  E  E  E  E  E  E     E  E  E  E  E  E     E  E  Q    Q     
--------------------|--0-----2-----3-----|------------------|
--3-----------------|--------------------|--0---------------|
-----0--------0-----|-----0-----0--------|--------5----2----|
--------3--0--------|-----------------2--|--0--4------------|
--2-----------2-----|--3-----------------|------------------|
-----------------3--|--------------------|------------------|

                      1st ending-------      2nd ending--------
  E  E  Q    E  E     E  E  E  E  E  E       E  E  E  E  E  E   
-------------------|---------------------||--------------------|
----------------0--|---------------------||--------------------|
--2----------------|--0-----------0--2--*||--0-----------------|
-----1-------------|--------0-----------*||--------0-----------|
--3-----2----0-----|-----2-----2---------||-----2-----2-----2--|
-------------------|--3-----------3------||--3-----------3-----|

  Louder...
  ^                  ^                  ^                 ^               
  Q    Q    E  E     Q.     E  E  E     Q    Q    Q       H        E  E   
--3----2----3-----|--0------------0--|-----------------|-----------------|
------------------|---------3--1-----|--3--------------|--0--------------|
--0---------------|------------------|-----------------|-----------------|
------------------|--4---------------|--4--------------|--3--------------|
--3---------2--3--|--5---------0-----|--2----2----0----|-----------0--2--|
------------------|------------------|-----------------|--3--------------|


  ^                 ^                  ^                ^              
  Q    Q    Q       Q.     E  E  E     H        Q       H        Q     
--3----2----3----|--0------------0--|----------------|----------------|
-----------------|--1------3--1-----|--3-------------|--0-------------|
--0--------------|--2---------------|--0-------------|--0-------------|
-----------------|------------------|--0-------------|--0-------------|
--3---------3----|--0---------0-----|----------------|----------------|
-----------------|------------------|--3--------3----|--2--------2----|

                                                       (very soft)
  ^                 ^                 ^                 ^             
  Q    Q    Q       H        E  E     Q.     E  Q       H.            
--3----2----3----|--0--------0--2--|--3------2--3----|--5------------|
--0--------------|--2--------------|--0--------------|---------------|
--0--------------|--2--------0-----|--0--------------|--5------------|
-----------------|-----------------|------------2----|--3------------|
-----------------|--0--------------|-----------------|---------------|
--0---------0----|-----------------|--0--------------|---------------|

  gradually get softer until the end...
  ^                 ^                                 ^             
  Q    Q    Q       H        Q       H        Q       H.            
--0----2----3----|----------------|----------------|---------------|
-----------------|--0-------------|----------------|---------------|
--0--------------|-----------2----|--2-------------|--0------------|
-----------------|--4-------------|--1-------------|--0------------|
--3---------3----|--5--------3----|--3-------------|---------------|
-----------------|----------------|-----------2----|--3------------|


  ^              
  H.             
--3------------||
--0------------||
---------------||
---------------||
---------------||
--3------------||




Duration Legend
---------------
W - whole
H - half
Q - quarter
E - 8th
S - 16th
T - 32nd
X - 64th
. - note dotted
|-n-|  - n-tuplets


Tablature Legend
----------------
^ - brush up
Login or Register to remove this ad.

19 comments on Kids Run Through The City Corner

Hey you finally decided to

Hey you finally decided to put this one up. Did you make any changes to it? It's a great arrangement.

Nah, it's the same old

Nah, it's the same old arrangement. I think I might start uploading my older ones. I haven't been in the mood to really work on any new ones lately and I've got a ton just sitting here.

After being able to get home

After being able to get home and play this song I have to say it's a great arrangement. It's just right for my current playing level and sounds fantastic. I did have one question though, just out of curiosity. How do you choose to finger (in the left-hand) the chord in the 16th measure?

–––––––––––––
–––––––––––––
–––2–––––––––
––––––1––––––
–––3–––––2–––
–––––––––––––

Thank you, Thank You, THANK

Thank you, Thank You, THANK YOU! This has always been a favorite song of mine. I've known it for piano for some time now, but I'm very excited to see a good looking guitar arrangement. Can't wait to get home to start learning this one.

index on 1, middle on 2, and

index on 1, middle on 2, and ring finger on 3 which slides down to play the 2 after it.

This is really beautifully

This is really beautifully done, but if you listen to the Midi, the second time through the main part of the song, the melody is about a third higher, or something like that. I'm working on tabbing that part real quick and i'll post just the melody here momentarily so you see what i mean..

e-----------------------1----

e-----------------------1------3-2-0-0--------0-
B--3-1-3-0-0-1-3-1-3--------------------3--3-------1
G--------------------------0-----------------

you get the idea..sorry for the lack of formatting

damn, theres no way to make

damn, theres no way to make that look good..but you have a good ear, i'm sure youve already figured it out

I can't read that but I know

I can't read that but I know what you are talking about. This isn't exactly as it's played in-game. Just a quick and easy little arrangement for people who were having trouble playing my harder stuff.

jw: what harder stuff?

jw: what harder stuff?

I dunno, Golden Saucer,

I dunno, Golden Saucer, Shion, Birth of a God, Radical Dreamers, etc

those really arent any

those really arent any harder... im looking for a challenge :)

then try Kooprice #64 (final

then try Kooprice #64 (final fight with bowser) from mario 64. Or Valentina from Super Mario RPG.

And if those are quite easy for you I look forward to a recording or two because, obviously, you must be rather good.

Its in a simliar key, most

Its in a simliar key, most of the harmonics are essentially the same as the first part. i forget how to format on a comment board like this, but i'm currently adding that part to your tab on notepad, I tried to maintain the style of the rest of the arrangement, so if you're interested let me know and i'll upload it on a forum or something.

No I know, in that spot it

No I know, in that spot it raises a third. Like I said, I felt like it might be too hard for such an easy arrangement but if you want to put it in there, by all means have at it.

easily one of the best tabs

5

easily one of the best tabs on this site

edit: or maybe just a good tab of a great song haha

wheres the intro?

wheres the intro?

Beautiful

5

Another Kabukibear tab I had to record. I love these so much!

I don't know how you manage

5

I don't know how you manage to make it sound great AND easy to play! Amazing tab!
https://soundcloud.com/mickegitarr/final-fantasy-vi-kids-run