Ads

Kefka's Theme (Final Fantasy VI) Bass Tab

Submitted: Oct 03, 2007 by Calebelijah (Last updated: Sep 20, 2009)

3
Average: 3 (2 votes)
Download | Listen
Game: Final Fantasy VI
Composer(s): Nobuo Uematsu
Style: Transcription
Series: Final Fantasy

Click here for a video example.

AutoScroll: Slow | Medium | Fast
Bassoon
     W                   W                   W
G||-------------------|-------------------|-------------------|
D||-------------------|-------------------|-------------------|
A||-------------------|-------------------|-------------------|
E||-------------------|-------------------|-------------------|

  W                   W                   W                   W
-------------------|-------------------|-------------------|-------------------|
-------------------|-------------------|-------------------|-------------------|
-------------------|-------------------|-------------------|-------------------|
-------------------|-------------------|-------------------|-------------------|

  W                   W                   W                   W
-------------------|-------------------|-------------------|-------------------|
-------------------|-------------------|-------------------|-------------------|
-------------------|-------------------|-------------------|-------------------|
-------------------|-------------------|-------------------|-------------------|

  W                   H           Q    Q    Q    Q       Q    H.
-------------------|-----------|--2---------2---------|--2-----------------|
-------------------|-----------|----------------------|--------------------|
-------------------|-----------|----------------------|--------------------|
-------------------|-----------|----------------------|--------------------|

  Q    Q    Q    Q       Q    Q    H           Q    Q    Q    Q
--2---------2---------|--2------------------|----------------------|
----------------------|------------1--------|--3---------3---------|
----------------------|---------------------|----------------------|
----------------------|---------------------|----------------------|

  Q    H.              Q    Q    Q    Q       Q    Q    H
--------------------|----------------------|---------------------|
--3-----------------|--3---------3---------|--3---------3--------|
--------------------|----------------------|---------------------|
--------------------|----------------------|---------------------|

  W                   W                   Q    Q    Q    Q
-------------------|-------------------|--2---------2---------|
-------------------|-------------------|----------------------|
-------------------|-------------------|----------------------|
-------------------|-------------------|----------------------|

  Q    H.              Q    Q    Q    Q       Q    Q    H
--2-----------------|--2---------2---------|--2------------------|
--------------------|----------------------|------------1--------|
--------------------|----------------------|---------------------|
--------------------|----------------------|---------------------|

  Q    Q    Q    Q       Q    H.              Q    Q    Q    Q
----------------------|--------------------|----------------------|
--3---------3---------|--3-----------------|--3---------3---------|
----------------------|--------------------|----------------------|
----------------------|--------------------|----------------------|

  Q    Q    H           Q    Q    Q    Q       Q    H.
---------------------|--2---------2---------|--2-----------------|
--3---------3--------|----------------------|--------------------|
---------------------|----------------------|--------------------|
---------------------|----------------------|--------------------|

  Q    Q    Q    Q       Q    Q    H           Q    Q    Q    Q
--2---------2---------|--2------------------|----------------------|
----------------------|------------1--------|--3---------3---------|
----------------------|---------------------|----------------------|
----------------------|---------------------|----------------------|

  Q    H.              Q    Q    Q    Q       Q    Q    H
--------------------|----------------------|---------------------|
--3-----------------|--3---------3---------|--3---------3--------|
--------------------|----------------------|---------------------|
--------------------|----------------------|---------------------|

  W                   W                   W                   W
-------------------|-------------------|-------------------|-------------------|
-------------------|-------------------|-------------------|-------------------|
-------------------|-------------------|-------------------|-------------------|
-------------------|-------------------|-------------------|-------------------|

  W                   W                   W                   W
-------------------|-------------------|-------------------|-------------------|
-------------------|-------------------|-------------------|-------------------|
-------------------|-------------------|-------------------|-------------------|
-------------------|-------------------|-------------------|-------------------|

  W                   W                   W                   W
-------------------|-------------------|-------------------|-------------------|
-------------------|-------------------|-------------------|-------------------|
-------------------|-------------------|-------------------|-------------------|
-------------------|-------------------|-------------------|-------------------|

  W
---------------------||
-------------------*-||
-------------------*-||
---------------------||

Duration Legend
---------------
W - whole
H - half
Q - quarter
E - 8th
S - 16th
T - 32nd
X - 64th
. - note dotted
|-n-|  - n-tuplets
Login or Register to remove this ad.