Ads

Kefka's Theme (Final Fantasy VI) Guitar Tab

Submitted: Oct 03, 2007 by Calebelijah (Last updated: Sep 20, 2009)

4.18182
Average: 4.2 (11 votes)
Download | Listen
Game: Final Fantasy VI
Composer(s): Nobuo Uematsu
Style: 2 or more instruments, Transcription
Series: Final Fantasy

Click here for a video example.

AutoScroll: Slow | Medium | Fast
Flutes              
      E  E   E  E   E  E   E  E      E  E   E  E   Q     E   E   
E||------------------------------|--12------------13----12------|
B||---------12-----13-----15-----|---------13---------------15--|
G||--14--------------------------|------------------------------|
D||------------------------------|------------------------------|
A||------------------------------|------------------------------|
E||------------------------------|------------------------------|
 
 
   E  E   E  E   E  E   E  E      E  E   E  E   Q     E   E   
--12--------------------------|------------------------------|
---------13-----12-----15-----|--13----------------------12--|
------------------------------|---------14-----13----14------|
------------------------------|------------------------------|
------------------------------|------------------------------|
------------------------------|------------------------------|
 
 
   E  E   E  E   Q     E  E      Q     E  E   E  E   E  E   
-----------------------------|-----------------------------|
-----------------------------|-----------------------------|
--14-------------------------|-----------------------------|
---------15-----14----15-----|--14----15-----13-----14-----|
-----------------------------|-----------------------------|
-----------------------------|-----------------------------|
 
 
  H         Q     E  E      Q     E  E   Q     E  E   
------------------------|----------------------------|
------------------------|----------------------------|
------------------------|----------------------------|
-----------15----14-----|--15----14-----13----14-----|
------------------------|----------------------------|
------------------------|----------------------------|
 
 
   E  E   E  E   E  E   E  E      E  E   E  E   E  E   E  E   
------------------------------|----------------12------------|
-----------------------12-----|--13-----15------------13-----|
----------------14------------|------------------------------|
--15-----14-------------------|------------------------------|
------------------------------|------------------------------|
------------------------------|------------------------------|
 
 
   Q     E   E   E  E   E  E      E  E   E  E   E  E   E  E      Q     E   E   
--13----12------12------------|------------------------------|----------------|
------------15---------13-----|--12-----15-----13------------|------------12--|
------------------------------|-----------------------14-----|--13----14------|
------------------------------|------------------------------|----------------|
------------------------------|------------------------------|----------------|
------------------------------|------------------------------|----------------|
 
 
  W                   W                   W                   W                 
-------------------|-------------------|-------------------|-------------------|
-------------------|-------------------|-------------------|-------------------|
-------------------|-------------------|-------------------|-------------------|
-------------------|-------------------|-------------------|-------------------|
-------------------|-------------------|-------------------|-------------------|
-------------------|-------------------|-------------------|-------------------|
 
 
  W                   W                   W                   W                 
-------------------|-------------------|-------------------|-------------------|
-------------------|-------------------|-------------------|-------------------|
-------------------|-------------------|-------------------|-------------------|
-------------------|-------------------|-------------------|-------------------|
-------------------|-------------------|-------------------|-------------------|
-------------------|-------------------|-------------------|-------------------|
 
 
  W                   W                   W                   W                 
-------------------|-------------------|-------------------|-------------------|
-------------------|-------------------|-------------------|-------------------|
-------------------|-------------------|-------------------|-------------------|
-------------------|-------------------|-------------------|-------------------|
-------------------|-------------------|-------------------|-------------------|
-------------------|-------------------|-------------------|-------------------|
 
 
  W                   W                   W                   W                 
-------------------|-------------------|-------------------|-------------------|
-------------------|-------------------|-------------------|-------------------|
-------------------|-------------------|-------------------|-------------------|
-------------------|-------------------|-------------------|-------------------|
-------------------|-------------------|-------------------|-------------------|
-------------------|-------------------|-------------------|-------------------|
 
 
  W                   W                   W                   W                 
-------------------|-------------------|-------------------|-------------------|
-------------------|-------------------|-------------------|-------------------|
-------------------|-------------------|-------------------|-------------------|
-------------------|-------------------|-------------------|-------------------|
-------------------|-------------------|-------------------|-------------------|
-------------------|-------------------|-------------------|-------------------|
 
 
  W                   W                   W                   W                 
-------------------|-------------------|-------------------|-------------------|
-------------------|-------------------|-------------------|-------------------|
-------------------|-------------------|-------------------|-------------------|
-------------------|-------------------|-------------------|-------------------|
-------------------|-------------------|-------------------|-------------------|
-------------------|-------------------|-------------------|-------------------|
 
 
  W                   W                   W                   W                 
-------------------|-------------------|-------------------|-------------------|
-------------------|-------------------|-------------------|-------------------|
-------------------|-------------------|-------------------|-------------------|
-------------------|-------------------|-------------------|-------------------|
-------------------|-------------------|-------------------|-------------------|
-------------------|-------------------|-------------------|-------------------|
 
 
  E  E  E  E  E  Q.        W                   E  E  E  E  E  Q.      
--0-----0-----0---------|-------------------|--0-----0-----0---------|
------------------------|-------------------|------------------------|
------------------------|-------------------|------------------------|
------------------------|-------------------|------------------------|
------------------------|-------------------|------------------------|
------------------------|-------------------|------------------------|
 
 
  E  E  E  E  E  Q.        E  E  E  E  E  E  E  E     H        H         
------------------------|--0-----0-----0-----0-----|--0-----------------|
------------------------|--------------------------|--1--------3--------|
--7--5--4--5--7---------|--------------------------|-----------4--------|
--9--7--6--7--9---------|--------------------------|--------------------|
------------------------|--------------------------|--------------------|
------------------------|--------------------------|--------------------|
 
 
  H        H           W                   E  E  E  E  E  E  E  E   
--------------------|-------------------|--------------------------|
--1--------1--------|-------------------|-----------0--1-----3-----|
--2--------0--------|--2----------------|--------2--0--2-----4-----|
--------------------|--3----------------|--------3-----------------|
--------------------|-------------------|--------------------------|
--------------------|-------------------|--------------------------|
 
 
  W                   W                    
-------------------|---------------------||
--4----------------|---------------------||
--5----------------|-------------------*-||
-------------------|-------------------*-||
-------------------|---------------------||
-------------------|---------------------||
 
 
 
 
Duration Legend
---------------
W - whole
H - half
Q - quarter
E - 8th
S - 16th
T - 32nd
X - 64th
. - note dotted
|-n-|  - n-tuplets





Piccolo             
     W                   W                   W                 
E||-------------------|-------------------|-------------------|
B||-------------------|-------------------|-------------------|
G||-------------------|-------------------|-------------------|
D||-------------------|-------------------|-------------------|
A||-------------------|-------------------|-------------------|
E||-------------------|-------------------|-------------------|
 
 
  W                   W                   W                   W                 
-------------------|-------------------|-------------------|-------------------|
-------------------|-------------------|-------------------|-------------------|
-------------------|-------------------|-------------------|-------------------|
-------------------|-------------------|-------------------|-------------------|
-------------------|-------------------|-------------------|-------------------|
-------------------|-------------------|-------------------|-------------------|
 
 
  W                   H        E   E   E   E   
-------------------|-----------8------12------|
-------------------|--------------10------12--|
-------------------|--------------------------|
-------------------|--------------------------|
-------------------|--------------------------|
-------------------|--------------------------|
 
 
   E   E   E   E   E   E   E   E      E   E   E   E   E   E   E   E   
--17------19------20------17------|--22------20--19--20------17------|
------17------17------17------17--|------17--------------17------17--|
----------------------------------|----------------------------------|
----------------------------------|----------------------------------|
----------------------------------|----------------------------------|
----------------------------------|----------------------------------|
 
 
   E   E   E   E   E   E   E   E      E   E   E   E   
--16------19------17--------------|------------------|
------17------17------17--18------|--17----------17--|
------------------------------19--|------16--17------|
----------------------------------|------------------|
----------------------------------|------------------|
----------------------------------|------------------|
 
 
  Q     E  E   E  E   E  E      E  E   E  E   Q     E  E   
-------12-----12-----12-----|--12-----12-----15----13-----|
----------------------------|-----------------------------|
----------------------------|-----------------------------|
----------------------------|-----------------------------|
----------------------------|-----------------------------|
----------------------------|-----------------------------|
 
 
   Q     E  E   E  E   E  E      Q     E  E   S  S  S  S  Q     
--------12-----13-----15-----|--13----12-----15-14-13-12-------|
--16-------------------------|---------------------------16----|
-----------------------------|---------------------------------|
-----------------------------|---------------------------------|
-----------------------------|---------------------------------|
-----------------------------|---------------------------------|
 
 
  Q     E  E   E  E   E  E      E  E   E  E   Q     E  E   
----------------------------|-----------------------------|
----------------------------|----------------13----12-----|
-------14-----14-----14-----|--14-----14------------------|
----------------------------|-----------------------------|
----------------------------|-----------------------------|
----------------------------|-----------------------------|
 
 
   Q     E  E   E  E   E  E      Q     E  E   E  E   E  E   
-----------------------------|-----------------------------|
---------------12-----13-----|--12-------------------------|
--13----14-------------------|--------14-----13-----14-----|
-----------------------------|-----------------------------|
-----------------------------|-----------------------------|
-----------------------------|-----------------------------|
 
 
   E  Q     E   E   E  E   E      E  E   E  E   S  S  S  S  Q     
--12--------------------------|----------------------------------|
-----------12--13---------13--|--15-----15-----13-15-13-12-------|
-------------------14---------|----------------------------13----|
------------------------------|----------------------------------|
------------------------------|----------------------------------|
------------------------------|----------------------------------|
 
 
  W                   W                   W                   W                 
-------------------|-------------------|-------------------|-------------------|
-------------------|-------------------|-------------------|-------------------|
-------------------|-------------------|-------------------|-------------------|
-------------------|-------------------|-------------------|-------------------|
-------------------|-------------------|-------------------|-------------------|
-------------------|-------------------|-------------------|-------------------|
 
 
  W                   W                   W                   W                 
-------------------|-------------------|-------------------|-------------------|
-------------------|-------------------|-------------------|-------------------|
-------------------|-------------------|-------------------|-------------------|
-------------------|-------------------|-------------------|-------------------|
-------------------|-------------------|-------------------|-------------------|
-------------------|-------------------|-------------------|-------------------|
 
 
  W                   W                   W                   W                 
-------------------|-------------------|-------------------|-------------------|
-------------------|-------------------|-------------------|-------------------|
-------------------|-------------------|-------------------|-------------------|
-------------------|-------------------|-------------------|-------------------|
-------------------|-------------------|-------------------|-------------------|
-------------------|-------------------|-------------------|-------------------|
 
 
  W                   W                   W                   W                 
-------------------|-------------------|-------------------|-------------------|
-------------------|-------------------|-------------------|-------------------|
-------------------|-------------------|-------------------|-------------------|
-------------------|-------------------|-------------------|-------------------|
-------------------|-------------------|-------------------|-------------------|
-------------------|-------------------|-------------------|-------------------|
 
 
   E  Q     E   E   E  E   E      E  E   E  E   S  S  S  S  Q     
--12--------------------------|----------------------------------|
-----------12--13---------13--|--15-----15-----13-15-13-12-------|
-------------------14---------|----------------------------13----|
------------------------------|----------------------------------|
------------------------------|----------------------------------|
------------------------------|----------------------------------|
 
 
  W                   W                   W                   W                 
-------------------|-------------------|-------------------|-------------------|
-------------------|-------------------|-------------------|-------------------|
-------------------|-------------------|-------------------|-------------------|
-------------------|-------------------|-------------------|-------------------|
-------------------|-------------------|-------------------|-------------------|
-------------------|-------------------|-------------------|-------------------|
 
 
  W                    Q     Q     Q     E   E      Q     Q     Q     Q     
-------------------|--------17----16----17--19--|--17----------17----20----|
-------------------|--17------------------------|--------17----------------|
-------------------|----------------------------|--------------------------|
-------------------|----------------------------|--------------------------|
-------------------|----------------------------|--------------------------|
-------------------|----------------------------|--------------------------|
 
 
   W                   W                    W                 
--24----------------|-------------------|--23----------------|
--------------------|-------------------|--------------------|
--------------------|-------------------|--------------------|
--------------------|-------------------|--------------------|
--------------------|-------------------|--------------------|
--------------------|-------------------|--------------------|
 
 
  Q     E   E   E   E   E   E      
-------11--10--------------------||
---------------13--12--10--------||
---------------------------10--*-||
-------------------------------*-||
---------------------------------||
---------------------------------||
 
 
 
 
Duration Legend
---------------
W - whole
H - half
Q - quarter
E - 8th
S - 16th
T - 32nd
X - 64th
. - note dotted
|-n-|  - n-tuplets





French Horns        
     W                   W                   W                 
E||-------------------|-------------------|-------------------|
B||-------------------|-------------------|-------------------|
G||-------------------|-------------------|-------------------|
D||-------------------|-------------------|-------------------|
A||-------------------|-------------------|-------------------|
E||-------------------|-------------------|-------------------|
 
 
  W                   W                   W                   W                 
-------------------|-------------------|-------------------|-------------------|
-------------------|-------------------|-------------------|-------------------|
-------------------|-------------------|-------------------|-------------------|
-------------------|-------------------|-------------------|-------------------|
-------------------|-------------------|-------------------|-------------------|
-------------------|-------------------|-------------------|-------------------|
 
 
  W                   W                   W                   W                 
-------------------|-------------------|-------------------|-------------------|
-------------------|-------------------|-------------------|-------------------|
-------------------|-------------------|-------------------|-------------------|
-------------------|-------------------|-------------------|-------------------|
-------------------|-------------------|-------------------|-------------------|
-------------------|-------------------|-------------------|-------------------|
 
 
  W                   H           W                   W                 
-------------------|-----------|-------------------|-------------------|
-------------------|-----------|-------------------|-------------------|
-------------------|-----------|-------------------|-------------------|
-------------------|-----------|-------------------|-------------------|
-------------------|-----------|-------------------|-------------------|
-------------------|-----------|-------------------|-------------------|
 
 
  W                   W                   W                   W                 
-------------------|-------------------|-------------------|-------------------|
-------------------|-------------------|-------------------|-------------------|
-------------------|-------------------|-------------------|-------------------|
-------------------|-------------------|-------------------|-------------------|
-------------------|-------------------|-------------------|-------------------|
-------------------|-------------------|-------------------|-------------------|
 
 
  W                   W                   E  Q    E  E  E  E  E   
-------------------|-------------------|--0----------------------|
-------------------|-------------------|----------0--1--------1--|
-------------------|-------------------|----------------2--------|
-------------------|-------------------|-------------------------|
-------------------|-------------------|-------------------------|
-------------------|-------------------|-------------------------|
 
 
  E  E  E  E  E  E  E  E     Q    E  E  E  E  E  E     E  E  E  E  Q    E  E   
--------------------------|-------------------------|-------------------------|
--3-----3-----1-----0-----|-------1-----1-----1-----|--1-----1-----0----3-----|
--------------------------|-------2-----2-----2-----|--2-----2-----2----4-----|
--------------------------|-------------------------|-------------------------|
--------------------------|-------------------------|-------------------------|
--------------------------|-------------------------|-------------------------|
 
 
  E  E  E  E  E  E  E  E     E  E  E  E  E  E  E  E     Q    E  E  E  E  E  E   
--------------------------|--------------------------|-------------------------|
--1-----1-----1-----1-----|--1-----1-----1-----1-----|-------1-----1-----1-----|
--2-----2-----2-----2-----|--2-----2-----2-----2-----|-------2-----2-----2-----|
--------------------------|--------------------------|-------------------------|
--------------------------|--------------------------|-------------------------|
--------------------------|--------------------------|-------------------------|
 
 
  E  E  E  E  Q    E  E     E  E  E  E  E  E  E  E     E  E  E  E  E  E  E  E   
-------------------------|--------------------------|--------------------------|
--1-----1-----4----3-----|--1-----1-----1-----1-----|--1-----1-----1-----1-----|
--2-----2-----5----4-----|--2-----2-----2-----2-----|--2-----2-----2-----2-----|
-------------------------|--------------------------|--------------------------|
-------------------------|--------------------------|--------------------------|
-------------------------|--------------------------|--------------------------|
 
 
  Q    E  E  E  E  E  E     E  E  E  E  Q    E  E     E  E  E  E  E  E  E  E   
-------------------------|-------------------------|--------------------------|
-------1-----1-----1-----|--1-----1-----0----3-----|--1-----1-----1-----1-----|
-------2-----2-----2-----|--2-----2-----2----4-----|--2-----2-----2-----2-----|
-------------------------|-------------------------|--------------------------|
-------------------------|-------------------------|--------------------------|
-------------------------|-------------------------|--------------------------|
 
 
  E  E  E  E  E  E  E  E     Q    E  E  E  E  E  E     E  E  E  E  Q    E  E   
--------------------------|-------------------------|-------------------------|
--1-----1-----1-----1-----|-------1-----1-----1-----|--1-----1-----4----3-----|
--2-----2-----2-----2-----|-------2-----2-----2-----|--2-----2-----5----4-----|
--------------------------|-------------------------|-------------------------|
--------------------------|-------------------------|-------------------------|
--------------------------|-------------------------|-------------------------|
 
 
  E  E  E  E  E  E  E  E     E  E  E  E  E  E  E  E     E  Q    E  E  E  E  E   
--------------------------|--------------------------|--0----------------------|
--1-----1-----1-----1-----|--1-----1-----1-----1-----|----------0--1--------1--|
--2-----2-----2-----2-----|--2-----2-----2-----2-----|----------------2--------|
--------------------------|--------------------------|-------------------------|
--------------------------|--------------------------|-------------------------|
--------------------------|--------------------------|-------------------------|
 
 

  E  E  E  E  E  E  E  E     W                   W                 
--------------------------|-------------------|-------------------|
--3-----3-----1-----0-----|-------------------|-------------------|
--------------------------|-------------------|-------------------|
--------------------------|-------------------|-------------------|
--------------------------|-------------------|-------------------|
--------------------------|-------------------|-------------------|
 
 
  W                   W                   W                   W                 
-------------------|-------------------|-------------------|-------------------|
-------------------|-------------------|-------------------|-------------------|
-------------------|-------------------|-------------------|-------------------|
-------------------|-------------------|-------------------|-------------------|
-------------------|-------------------|-------------------|-------------------|
-------------------|-------------------|-------------------|-------------------|
 
 
  W                   W                   W                   W                 
-------------------|-------------------|-------------------|-------------------|
-------------------|-------------------|-------------------|-------------------|
-------------------|-------------------|-------------------|-------------------|
-------------------|-------------------|-------------------|-------------------|
-------------------|-------------------|-------------------|-------------------|
-------------------|-------------------|-------------------|-------------------|
 
 
  W                    
---------------------||
---------------------||
-------------------*-||
-------------------*-||
---------------------||
---------------------||
 
 
 
 
Duration Legend
---------------
W - whole
H - half
Q - quarter
E - 8th
S - 16th
T - 32nd
X - 64th
. - note dotted
|-n-|  - n-tuplets





Trombones           
     W                   W                   W                 
E||-------------------|-------------------|-------------------|
B||-------------------|-------------------|-------------------|
G||-------------------|-------------------|-------------------|
D||-------------------|-------------------|-------------------|
A||-------------------|-------------------|-------------------|
E||-------------------|-------------------|-------------------|
 
 
  W                   W                   W                   W                 
-------------------|-------------------|-------------------|-------------------|
-------------------|-------------------|-------------------|-------------------|
-------------------|-------------------|-------------------|-------------------|
-------------------|-------------------|-------------------|-------------------|
-------------------|-------------------|-------------------|-------------------|
-------------------|-------------------|-------------------|-------------------|
 
 
  W                   W                   W                   W                 
-------------------|-------------------|-------------------|-------------------|
-------------------|-------------------|-------------------|-------------------|
-------------------|-------------------|-------------------|-------------------|
-------------------|-------------------|-------------------|-------------------|
-------------------|-------------------|-------------------|-------------------|
-------------------|-------------------|-------------------|-------------------|
 
 
  W                   H           W                   W                 
-------------------|-----------|-------------------|-------------------|
-------------------|-----------|-------------------|-------------------|
-------------------|-----------|-------------------|-------------------|
-------------------|-----------|-------------------|-------------------|
-------------------|-----------|-------------------|-------------------|
-------------------|-----------|-------------------|-------------------|
 
 
  W                   W                   W                   W                 
-------------------|-------------------|-------------------|-------------------|
-------------------|-------------------|-------------------|-------------------|
-------------------|-------------------|-------------------|-------------------|
-------------------|-------------------|-------------------|-------------------|
-------------------|-------------------|-------------------|-------------------|
-------------------|-------------------|-------------------|-------------------|
 
 
  W                   W                   W                   W                 
-------------------|-------------------|-------------------|-------------------|
-------------------|-------------------|-------------------|-------------------|
-------------------|-------------------|-------------------|-------------------|
-------------------|-------------------|-------------------|-------------------|
-------------------|-------------------|-------------------|-------------------|
-------------------|-------------------|-------------------|-------------------|
 
 
  Q    E  E  E  E  E  E     E  E  E  E  E  E  E  E     E  E  E  E  E  E  E  E   
-------------------------|--------------------------|--------------------------|
-------------------------|--------------------0-----|--------------------------|
-------2-----2-----2-----|--2-----2-----2-----------|--2-----2-----2-----2-----|
-------------------------|--------------------------|--------------------------|
-------------------------|--------------------------|--------------------------|
-------------------------|--------------------------|--------------------------|
 
 
  E  E  E  E  E  E  E  E     Q    E  E  E  E  E  E     E  E  E  E  Q    E  E   
--------------------------|-------------------------|-------------------------|
--------------------------|-------------------------|--------------1----0-----|
--2-----2-----2-----2-----|-------2-----2-----2-----|--2-----2----------------|
--------------------------|-------------------------|-------------------------|
--------------------------|-------------------------|-------------------------|
--------------------------|-------------------------|-------------------------|
 
 
  E  E  E  E  E  E  E  E     E  E  E  E  E  E  E  E     Q    E  E  E  E  E  E   
--------------------------|--------------------------|-------------------------|
--------------------------|--------------------------|-------------------------|
--2-----2-----2-----2-----|--2-----2-----2-----2-----|-------2-----2-----2-----|
--------------------------|--------------------------|-------------------------|
--------------------------|--------------------------|-------------------------|
--------------------------|--------------------------|-------------------------|
 
 
  E  E  E  E  E  E  E  E     E  E  E  E  E  E  E  E   
--------------------------|--------------------------|
--------------------0-----|--------------------------|
--2-----2-----2-----------|--2-----2-----2-----2-----|
--------------------------|--------------------------|
--------------------------|--------------------------|
--------------------------|--------------------------|
 
 
  E  E  E  E  E  E  E  E     Q    E  E  E  E  E  E     E  E  E  E  Q    E  E   
--------------------------|-------------------------|-------------------------|
--------------------------|-------------------------|--------------1----0-----|
--2-----2-----2-----2-----|-------2-----2-----2-----|--2-----2----------------|
--------------------------|-------------------------|-------------------------|
--------------------------|-------------------------|-------------------------|
--------------------------|-------------------------|-------------------------|
 
 
  E  E  E  E  E  E  E  E     E  E  E  E  E  E  E  E     W                 
--------------------------|--------------------------|-------------------|
--------------------------|--------------------------|-------------------|
--2-----2-----2-----2-----|--2-----2-----2-----2-----|-------------------|
--------------------------|--------------------------|-------------------|
--------------------------|--------------------------|-------------------|
--------------------------|--------------------------|-------------------|
 
 
  W                   W                   W                   W                 
-------------------|-------------------|-------------------|-------------------|
-------------------|-------------------|-------------------|-------------------|
-------------------|-------------------|-------------------|-------------------|
-------------------|-------------------|-------------------|-------------------|
-------------------|-------------------|-------------------|-------------------|
-------------------|-------------------|-------------------|-------------------|
 
 
  W                   W                   W                   W                 
-------------------|-------------------|-------------------|-------------------|
-------------------|-------------------|-------------------|-------------------|
-------------------|-------------------|-------------------|-------------------|
-------------------|-------------------|-------------------|-------------------|
-------------------|-------------------|-------------------|-------------------|
-------------------|-------------------|-------------------|-------------------|
 
 
  W                   W                   W                 
-------------------|-------------------|-------------------|
-------------------|-------------------|-------------------|
-------------------|-------------------|-------------------|
-------------------|-------------------|-------------------|
-------------------|-------------------|-------------------|
-------------------|-------------------|-------------------|
 
 
  W                    
---------------------||
---------------------||
-------------------*-||
-------------------*-||
---------------------||
---------------------||
 
 
 
 
Duration Legend
---------------
W - whole
H - half
Q - quarter
E - 8th
S - 16th
T - 32nd
X - 64th
. - note dotted
|-n-|  - n-tuplets





Trumpets            
     W                   W                   W                 
E||-------------------|-------------------|-------------------|
B||-------------------|-------------------|-------------------|
G||-------------------|-------------------|-------------------|
D||-------------------|-------------------|-------------------|
A||-------------------|-------------------|-------------------|
E||-------------------|-------------------|-------------------|
 
 
  W                   W                   W                   W                 
-------------------|-------------------|-------------------|-------------------|
-------------------|-------------------|-------------------|-------------------|
-------------------|-------------------|-------------------|-------------------|
-------------------|-------------------|-------------------|-------------------|
-------------------|-------------------|-------------------|-------------------|
-------------------|-------------------|-------------------|-------------------|
 
 
  W                   W                   W                   W                 
-------------------|-------------------|-------------------|-------------------|
-------------------|-------------------|-------------------|-------------------|
-------------------|-------------------|-------------------|-------------------|
-------------------|-------------------|-------------------|-------------------|
-------------------|-------------------|-------------------|-------------------|
-------------------|-------------------|-------------------|-------------------|
 
 
  W                   H           W                   W                 
-------------------|-----------|-------------------|-------------------|
-------------------|-----------|-------------------|-------------------|
-------------------|-----------|-------------------|-------------------|
-------------------|-----------|-------------------|-------------------|
-------------------|-----------|-------------------|-------------------|
-------------------|-----------|-------------------|-------------------|
 
 
  W                   W                   W                   W                 
-------------------|-------------------|-------------------|-------------------|
-------------------|-------------------|-------------------|-------------------|
-------------------|-------------------|-------------------|-------------------|
-------------------|-------------------|-------------------|-------------------|
-------------------|-------------------|-------------------|-------------------|
-------------------|-------------------|-------------------|-------------------|
 
 
  W                   W                   W                   W                 
-------------------|-------------------|-------------------|-------------------|
-------------------|-------------------|-------------------|-------------------|
-------------------|-------------------|-------------------|-------------------|
-------------------|-------------------|-------------------|-------------------|
-------------------|-------------------|-------------------|-------------------|
-------------------|-------------------|-------------------|-------------------|
 
 
  Q    E  E  E  E  E  E     E  E  E  E  Q    E  E     Q    E  E  E  E  E  E   
-------------------------|-------------------------|-------------------------|
-------5-----5-----5-----|--5-----5-----8----6-----|--4----5-----6-----8-----|
-------5-----5-----5-----|--5-----5-----4----7-----|--5----5-----5-----5-----|
-------------------------|-------------------------|-------------------------|
-------------------------|-------------------------|-------------------------|
-------------------------|-------------------------|-------------------------|
 
 
  Q    E  E  S S S S Q       Q    E  E  E  E  E  E     E  E  E  E  Q    E  E   
--------------------------|-------5-----5-----5-----|--5-----5-----8----7-----|
--6----5-----8-7-6-5------|-------6-----6-----6-----|--6-----6-----6----6-----|
--5----5-------------8----|-------------------------|-------------------------|
--------------------------|-------------------------|-------------------------|
--------------------------|-------------------------|-------------------------|
--------------------------|-------------------------|-------------------------|
 
 
  Q    E  E  E  E  E  E     Q    E  E  E  E  E  E     Q    E  E  E  E  E  E   
--4----5-----7-----8-----|--7----5-----4-----5-----|-------------------------|
--6----6-----6-----6-----|--6----6-----6-----6-----|-------5-----5-----5-----|
-------------------------|-------------------------|-------5-----5-----5-----|
-------------------------|-------------------------|-------------------------|
-------------------------|-------------------------|-------------------------|
-------------------------|-------------------------|-------------------------|
 
 
  E  E  E  E  Q    E  E     Q    E  E  E  E  E  E     Q    E  E  S S S S Q     
-------------------------|-------------------------|--------------------------|
--5-----5-----8----6-----|--4----5-----6-----8-----|--6----5-----8-7-6-5------|
--5-----5-----4----7-----|--5----5-----5-----5-----|--5----5-------------8----|
-------------------------|-------------------------|--------------------------|
-------------------------|-------------------------|--------------------------|
-------------------------|-------------------------|--------------------------|
 
 
  Q    E  E  E  E  E  E     E  E  E  E  Q    E  E     Q    E  E  E  E  E  E   
-------5-----5-----5-----|--5-----5-----8----7-----|--4----5-----7-----8-----|
-------6-----6-----6-----|--6-----6-----6----6-----|--6----6-----6-----6-----|
-------------------------|-------------------------|-------------------------|
-------------------------|-------------------------|-------------------------|
-------------------------|-------------------------|-------------------------|
-------------------------|-------------------------|-------------------------|
 
 
  Q    E  E  E  E  E  E     W                   W                 
--7----5-----4-----5-----|-------------------|-------------------|
--6----6-----6-----6-----|-------------------|-------------------|
-------------------------|-------------------|-------------------|
-------------------------|-------------------|-------------------|
-------------------------|-------------------|-------------------|
-------------------------|-------------------|-------------------|
 
 
  W                   W                   W                   W                 
-------------------|-------------------|-------------------|-------------------|
-------------------|-------------------|-------------------|-------------------|
-------------------|-------------------|-------------------|-------------------|
-------------------|-------------------|-------------------|-------------------|
-------------------|-------------------|-------------------|-------------------|
-------------------|-------------------|-------------------|-------------------|
 
 
  W                   W                   W                   W                 
-------------------|-------------------|-------------------|-------------------|
-------------------|-------------------|-------------------|-------------------|
-------------------|-------------------|-------------------|-------------------|
-------------------|-------------------|-------------------|-------------------|
-------------------|-------------------|-------------------|-------------------|
-------------------|-------------------|-------------------|-------------------|
 
 
  W                   W                   W                    
-------------------|-------------------|---------------------||
-------------------|-------------------|---------------------||
-------------------|-------------------|-------------------*-||
-------------------|-------------------|-------------------*-||
-------------------|-------------------|---------------------||
-------------------|-------------------|---------------------||
 
 
 
 
Duration Legend
---------------
W - whole
H - half
Q - quarter
E - 8th
S - 16th
T - 32nd
X - 64th
. - note dotted
|-n-|  - n-tuplets





Timpani             
     W                   W                   W                 
E||-------------------|-------------------|-------------------|
B||-------------------|-------------------|-------------------|
G||-------------------|-------------------|-------------------|
D||-------------------|-------------------|-------------------|
A||-------------------|-------------------|-------------------|
E||-------------------|-------------------|-------------------|
 
 
  W                   W                   W                   W                 
-------------------|-------------------|-------------------|-------------------|
-------------------|-------------------|-------------------|-------------------|
-------------------|-------------------|-------------------|-------------------|
-------------------|-------------------|-------------------|-------------------|
-------------------|-------------------|-------------------|-------------------|
-------------------|-------------------|-------------------|-------------------|
 
 
  W                   W                   W                   W                 
-------------------|-------------------|-------------------|-------------------|
-------------------|-------------------|-------------------|-------------------|
-------------------|-------------------|-------------------|-------------------|
-------------------|-------------------|-------------------|-------------------|
-------------------|-------------------|-------------------|-------------------|
-------------------|-------------------|-------------------|-------------------|
 
 
  W                   H           W                   W                 
-------------------|-----------|-------------------|-------------------|
-------------------|-----------|-------------------|-------------------|
-------------------|-----------|-------------------|-------------------|
-------------------|-----------|-------------------|-------------------|
-------------------|-----------|-------------------|-------------------|
-------------------|-----------|-------------------|-------------------|
 
 
  W                   W                   W                   W                 
-------------------|-------------------|-------------------|-------------------|
-------------------|-------------------|-------------------|-------------------|
-------------------|-------------------|-------------------|-------------------|
-------------------|-------------------|-------------------|-------------------|
-------------------|-------------------|-------------------|-------------------|
-------------------|-------------------|-------------------|-------------------|
 
 
  W                   W                   E  Q    E  E  E  E  E   
-------------------|-------------------|-------------------------|
-------------------|-------------------|-------------------------|
-------------------|-------------------|-------------------------|
-------------------|-------------------|--2----------------------|
-------------------|-------------------|----------2--3--0-----3--|
-------------------|-------------------|-------------------------|
 
 
  E  E  E  E  E  E  E  E     E  Q.     E  Q.        E  Q.     E  Q.      
--------------------------|----------------------|----------------------|
--------------------------|----------------------|----------------------|
--------------------------|----------------------|----------------------|
--0-----0-----------------|----------------------|----------------------|
--------------3-----------|--0-------------------|--0-------------------|
--------------------4-----|------------0---------|------------0---------|
 
 
  E  Q.     E  Q.        E  H.           E     E  Q.     E  Q.      
----------------------|---------------------|----------------------|
----------------------|---------------------|----------------------|
----------------------|---------------------|----------------------|
----------------------|---------------------|----------------------|
--0-------------------|--0------------------|--0---------3---------|
------------0---------|---------------------|----------------------|
 
 
  E  Q.     E  Q.        E  Q.     E  Q.        E  Q.     E  Q.      
----------------------|----------------------|----------------------|
----------------------|----------------------|----------------------|
----------------------|----------------------|----------------------|
----------------------|----------------------|----------------------|
--0-------------------|--0---------3---------|--0-------------------|
------------0---------|----------------------|------------0---------|
 
 
  E  Q.     E  Q.        E  Q.     E  Q.        E  Q.     E  Q.      
----------------------|----------------------|----------------------|
----------------------|----------------------|----------------------|
----------------------|----------------------|----------------------|
----------------------|----------------------|----------------------|
--0-------------------|--0-------------------|--0-------------------|
------------0---------|------------0---------|------------0---------|
 
 
  E  H.           E     E  Q.     E  Q.        E  Q.     E  Q.      
---------------------|----------------------|----------------------|
---------------------|----------------------|----------------------|
---------------------|----------------------|----------------------|
---------------------|----------------------|----------------------|
--0------------------|--0---------3---------|--0-------------------|
---------------------|----------------------|------------0---------|
 
 
  E  Q.     E  Q.        E  Q.     E  Q.        E  Q    E  E  E  E  E   
----------------------|----------------------|-------------------------|
----------------------|----------------------|-------------------------|
----------------------|----------------------|-------------------------|
----------------------|----------------------|--2----------------------|
--0---------3---------|--0-------------------|----------2--3--0-----3--|
----------------------|------------0---------|-------------------------|
 
 
  E  E  E  E  E  E  E  E     W                   W                 
--------------------------|-------------------|-------------------|
--------------------------|-------------------|-------------------|
--------------------------|-------------------|-------------------|
--0-----0-----------------|-------------------|-------------------|
--------------3-----------|-------------------|-------------------|
--------------------4-----|-------------------|-------------------|
 
 
  W                   W                   W                   W                 
-------------------|-------------------|-------------------|-------------------|
-------------------|-------------------|-------------------|-------------------|
-------------------|-------------------|-------------------|-------------------|
-------------------|-------------------|-------------------|-------------------|
-------------------|-------------------|-------------------|-------------------|
-------------------|-------------------|-------------------|-------------------|
 
 
  W                   W                   W                   W                 
-------------------|-------------------|-------------------|-------------------|
-------------------|-------------------|-------------------|-------------------|
-------------------|-------------------|-------------------|-------------------|
-------------------|-------------------|-------------------|-------------------|
-------------------|-------------------|-------------------|-------------------|
-------------------|-------------------|-------------------|-------------------|
 
 
  W                    
---------------------||
---------------------||
-------------------*-||
-------------------*-||
---------------------||
---------------------||
 
 
 
 
Duration Legend
---------------
W - whole
H - half
Q - quarter
E - 8th
S - 16th
T - 32nd
X - 64th
. - note dotted
|-n-|  - n-tuplets





Violin II           
     W                   W                   W                 
E||-------------------|-------------------|-------------------|
B||-------------------|-------------------|-------------------|
G||-------------------|-------------------|-------------------|
D||-------------------|-------------------|-------------------|
A||-------------------|-------------------|-------------------|
E||-------------------|-------------------|-------------------|
 
 
  W                   W                   W                   W                 
-------------------|-------------------|-------------------|-------------------|
-------------------|-------------------|-------------------|-------------------|
-------------------|-------------------|-------------------|-------------------|
-------------------|-------------------|-------------------|-------------------|
-------------------|-------------------|-------------------|-------------------|
-------------------|-------------------|-------------------|-------------------|
 
 
  W                   W                   W                   W                 
-------------------|-------------------|-------------------|-------------------|
-------------------|-------------------|-------------------|-------------------|
-------------------|-------------------|-------------------|-------------------|
-------------------|-------------------|-------------------|-------------------|
-------------------|-------------------|-------------------|-------------------|
-------------------|-------------------|-------------------|-------------------|
 
 
  W                   H           Q    E  E  E  E  E  E   
-------------------|-----------|-------------------------|
-------------------|-----------|-------1-----1-----1-----|
-------------------|-----------|-------------------------|
-------------------|-----------|-------------------------|
-------------------|-----------|-------------------------|
-------------------|-----------|-------------------------|
 
 
  E  E  E  E  Q    E  E     E  E  E  E  E  E  E  E     E  E  E  E  E  E  E  E   
-------------------------|--------------------------|--------------------------|
--1-----1-----0----3-----|--1-----1-----1-----1-----|--1-----1-----1-----1-----|
-------------------------|--------------------------|--------------------------|
-------------------------|--------------------------|--------------------------|
-------------------------|--------------------------|--------------------------|
-------------------------|--------------------------|--------------------------|
 
 
  E  E  E  E  E  E  E  E     E  E  E  E  Q    E  E     E  E  E  E  E  E  E  E   
--------------------------|-------------------------|--------------------------|
--1-----1-----1-----1-----|--1-----1-----4----3-----|--1-----1-----1-----1-----|
--------------------------|-------------------------|--------------------------|
--------------------------|-------------------------|--------------------------|
--------------------------|-------------------------|--------------------------|
--------------------------|-------------------------|--------------------------|
 
 
  E  E  E  E  E  E  E  E     W                   W                 
--------------------------|-------------------|-------------------|
--1-----1-----1-----1-----|-------------------|-------------------|
--------------------------|-------------------|-------------------|
--------------------------|-------------------|-------------------|
--------------------------|-------------------|-------------------|
--------------------------|-------------------|-------------------|
 
 
  Q    E  E  E  E  E  E     E  E  E  E  Q    E  E     E  E  E  E  E  E  E  E   
-------------------------|-------------------------|--------------------------|
-------1-----1-----1-----|--1-----1-----0----3-----|--1-----1-----1-----1-----|
-------------------------|-------------------------|--------------------------|
-------------------------|-------------------------|--------------------------|
-------------------------|-------------------------|--------------------------|
-------------------------|-------------------------|--------------------------|
 
 
  E  E  E  E  E  E  E  E     E  E  E  E  E  E  E  E     E  E  E  E  Q    E  E   
--------------------------|--------------------------|-------------------------|
--1-----1-----1-----1-----|--1-----1-----1-----1-----|--1-----1-----4----3-----|
--------------------------|--------------------------|-------------------------|
--------------------------|--------------------------|-------------------------|
--------------------------|--------------------------|-------------------------|
--------------------------|--------------------------|-------------------------|
 
 
  E  E  E  E  E  E  E  E     E  E  E  E  E  E  E  E     Q    E  E  E  E  E  E   
--------------------------|--------------------------|-------------------------|
--1-----1-----1-----1-----|--1-----1-----1-----1-----|-------1-----1-----1-----|
--------------------------|--------------------------|-------------------------|
--------------------------|--------------------------|-------------------------|
--------------------------|--------------------------|-------------------------|
--------------------------|--------------------------|-------------------------|
 
 
  E  E  E  E  Q    E  E     E  E  E  E  E  E  E  E     E  E  E  E  E  E  E  E   
-------------------------|--------------------------|--------------------------|
--1-----1-----0----3-----|--1-----1-----1-----1-----|--1-----1-----1-----1-----|
-------------------------|--------------------------|--------------------------|
-------------------------|--------------------------|--------------------------|
-------------------------|--------------------------|--------------------------|
-------------------------|--------------------------|--------------------------|
 
 
  E  E  E  E  E  E  E  E     E  E  E  E  Q    E  E     E  E  E  E  E  E  E  E   
--------------------------|-------------------------|--------------------------|
--1-----1-----1-----1-----|--1-----1-----4----3-----|--1-----1-----1-----1-----|
--------------------------|-------------------------|--------------------------|
--------------------------|-------------------------|--------------------------|
--------------------------|-------------------------|--------------------------|
--------------------------|-------------------------|--------------------------|
 
 
  E  E  E  E  E  E  E  E     W                   W                 
--------------------------|-------------------|-------------------|
--1-----1-----1-----1-----|-------------------|-------------------|
--------------------------|-------------------|-------------------|
--------------------------|-------------------|-------------------|
--------------------------|-------------------|-------------------|
--------------------------|-------------------|-------------------|
 
 
  W                   W                   W                   W                 
-------------------|-------------------|-------------------|-------------------|
-------------------|-------------------|-------------------|-------------------|
-------------------|-------------------|-------------------|-------------------|
-------------------|-------------------|-------------------|-------------------|
-------------------|-------------------|-------------------|-------------------|
-------------------|-------------------|-------------------|-------------------|
 
 
  W                   H        H           W                 
-------------------|--0-----------------|-------------------|
-------------------|-----------3--------|--1----------------|
-------------------|--------------------|-------------------|
-------------------|--------------------|-------------------|
-------------------|--------------------|-------------------|
-------------------|--------------------|-------------------|
 
 
  W                   E  E  E  E  E  E  E  E     W                 
-------------------|--------------------------|-------------------|
-------------------|-----------0--1-----3-----|--4----------------|
--2----------------|--------2-----------------|-------------------|
-------------------|--------------------------|-------------------|
-------------------|--------------------------|-------------------|
-------------------|--------------------------|-------------------|
 
 
  W                    
---------------------||
---------------------||
-------------------*-||
-------------------*-||
---------------------||
---------------------||
 
 
 
 
Duration Legend
---------------
W - whole
H - half
Q - quarter
E - 8th
S - 16th
T - 32nd
X - 64th
. - note dotted
|-n-|  - n-tuplets





Viola               
     W                   W                   W                 
E||-------------------|-------------------|-------------------|
B||-------------------|-------------------|-------------------|
G||-------------------|-------------------|-------------------|
D||-------------------|-------------------|-------------------|
A||-------------------|-------------------|-------------------|
E||-------------------|-------------------|-------------------|
 
 
  W                   W                   W                   W                 
-------------------|-------------------|-------------------|-------------------|
-------------------|-------------------|-------------------|-------------------|
-------------------|-------------------|-------------------|-------------------|
-------------------|-------------------|-------------------|-------------------|
-------------------|-------------------|-------------------|-------------------|
-------------------|-------------------|-------------------|-------------------|
 
 
  W                   W                   W                   W                 
-------------------|-------------------|-------------------|-------------------|
-------------------|-------------------|-------------------|-------------------|
-------------------|-------------------|-------------------|-------------------|
-------------------|-------------------|-------------------|-------------------|
-------------------|-------------------|-------------------|-------------------|
-------------------|-------------------|-------------------|-------------------|
 
 
  W                   H           Q    E  E  E  E  E  E   
-------------------|-----------|-------------------------|
-------------------|-----------|-------------------------|
-------------------|-----------|-------2-----2-----2-----|
-------------------|-----------|-------------------------|
-------------------|-----------|-------------------------|
-------------------|-----------|-------------------------|
 
 
  E  E  E  E  E  E  E  E     E  E  E  E  E  E  E  E   
--------------------------|--------------------------|
--------------------0-----|--------------------------|
--2-----2-----2-----------|--2-----2-----2-----2-----|
--------------------------|--------------------------|
--------------------------|--------------------------|
--------------------------|--------------------------|
 
 
  E  E  E  E  E  E  E  E     E  E  E  E  E  E  E  E     E  E  E  E  Q    E  E   
--------------------------|--------------------------|-------------------------|
--------------------------|--------------------------|--------------1----0-----|
--2-----2-----2-----2-----|--2-----2-----2-----2-----|--2-----2----------------|
--------------------------|--------------------------|-------------------------|
--------------------------|--------------------------|-------------------------|
--------------------------|--------------------------|-------------------------|
 
 
  E  E  E  E  E  E  E  E     E  E  E  E  E  E  E  E     W                 
--------------------------|--------------------------|-------------------|
--------------------------|--------------------------|-------------------|
--2-----2-----2-----2-----|--2-----2-----2-----2-----|-------------------|
--------------------------|--------------------------|-------------------|
--------------------------|--------------------------|-------------------|
--------------------------|--------------------------|-------------------|
 
 
  W                   Q    E  E  E  E  E  E     E  E  E  E  E  E  E  E   
-------------------|-------------------------|--------------------------|
-------------------|-------------------------|--------------------0-----|
-------------------|-------2-----2-----2-----|--2-----2-----2-----------|
-------------------|-------------------------|--------------------------|
-------------------|-------------------------|--------------------------|
-------------------|-------------------------|--------------------------|
 
 
  E  E  E  E  E  E  E  E     E  E  E  E  E  E  E  E   
--------------------------|--------------------------|
--------------------------|--------------------------|
--2-----2-----2-----2-----|--2-----2-----2-----2-----|
--------------------------|--------------------------|
--------------------------|--------------------------|
--------------------------|--------------------------|
 
 
  E  E  E  E  E  E  E  E     E  E  E  E  Q    E  E     E  E  E  E  E  E  E  E   
--------------------------|-------------------------|--------------------------|
--------------------------|--------------1----0-----|--------------------------|
--2-----2-----2-----2-----|--2-----2----------------|--2-----2-----2-----2-----|
--------------------------|-------------------------|--------------------------|
--------------------------|-------------------------|--------------------------|
--------------------------|-------------------------|--------------------------|
 
 
  E  E  E  E  E  E  E  E     Q    E  E  E  E  E  E     E  E  E  E  E  E  E  E   
--------------------------|-------------------------|--------------------------|
--------------------------|-------------------------|--------------------0-----|
--2-----2-----2-----2-----|-------2-----2-----2-----|--2-----2-----2-----------|
--------------------------|-------------------------|--------------------------|
--------------------------|-------------------------|--------------------------|
--------------------------|-------------------------|--------------------------|
 
 
  E  E  E  E  E  E  E  E     E  E  E  E  E  E  E  E   
--------------------------|--------------------------|
--------------------------|--------------------------|
--2-----2-----2-----2-----|--2-----2-----2-----2-----|
--------------------------|--------------------------|
--------------------------|--------------------------|
--------------------------|--------------------------|
 
 
  E  E  E  E  E  E  E  E     E  E  E  E  Q    E  E     E  E  E  E  E  E  E  E   
--------------------------|-------------------------|--------------------------|
--------------------------|--------------1----0-----|--------------------------|
--2-----2-----2-----2-----|--2-----2----------------|--2-----2-----2-----2-----|
--------------------------|-------------------------|--------------------------|
--------------------------|-------------------------|--------------------------|
--------------------------|-------------------------|--------------------------|
 
 
  E  E  E  E  E  E  E  E     W                   W                 
--------------------------|-------------------|-------------------|
--------------------------|-------------------|-------------------|
--2-----2-----2-----2-----|-------------------|-------------------|
--------------------------|-------------------|-------------------|
--------------------------|-------------------|-------------------|
--------------------------|-------------------|-------------------|
 
 
  E  E  E  E  E  Q.        E  E  E  E  E  Q.        E  E  E  E  E  Q.      
------------------------|------------------------|------------------------|
--------0-----1---------|--0-----------0---------|--------0-----1---------|
--2---------------------|-----2--1--2------------|--2---------------------|
------------------------|------------------------|------------------------|
------------------------|------------------------|------------------------|
------------------------|------------------------|------------------------|
 
 
  E  E  E  E  E  Q.        E  E  E  E  E  E  E  E     H        H         
------------------------|--------------------------|--------------------|
--3--1--0--1--3---------|--------0-----1-----3-----|--1--------0--------|
------------------------|--2-----------------------|--------------------|
------------------------|--------------------------|--------------------|
------------------------|--------------------------|--------------------|
------------------------|--------------------------|--------------------|
 
 
  H        H           W                   E  E  E  E  E  E  E  E   
--------------------|-------------------|--------------------------|
--------------------|-------------------|--------------------0-----|
--2--------0--------|-------------------|-----------0--2-----------|
--------------------|--3----------------|--------3-----------------|
--------------------|-------------------|--------------------------|
--------------------|-------------------|--------------------------|
 
 
  W                   W                    
-------------------|---------------------||
--1----------------|---------------------||
-------------------|-------------------*-||
-------------------|-------------------*-||
-------------------|---------------------||
-------------------|---------------------||
 
 
 
 
Duration Legend
---------------
W - whole
H - half
Q - quarter
E - 8th
S - 16th
T - 32nd
X - 64th
. - note dotted
|-n-|  - n-tuplets





Cello               
     W                   W                   W                 
E||-------------------|-------------------|-------------------|
B||-------------------|-------------------|-------------------|
G||-------------------|-------------------|-------------------|
D||-------------------|-------------------|-------------------|
A||-------------------|-------------------|-------------------|
E||-------------------|-------------------|-------------------|
 
 
  W                   W                   W                   W                 
-------------------|-------------------|-------------------|-------------------|
-------------------|-------------------|-------------------|-------------------|
-------------------|-------------------|-------------------|-------------------|
-------------------|-------------------|-------------------|-------------------|
-------------------|-------------------|-------------------|-------------------|
-------------------|-------------------|-------------------|-------------------|
 
 
  W                   W                   W                   W                 
-------------------|-------------------|-------------------|-------------------|
-------------------|-------------------|-------------------|-------------------|
-------------------|-------------------|-------------------|-------------------|
-------------------|-------------------|-------------------|-------------------|
-------------------|-------------------|-------------------|-------------------|
-------------------|-------------------|-------------------|-------------------|
 
 
  W                   H           Q    Q    Q    Q       Q    H.            
-------------------|-----------|----------------------|--------------------|
-------------------|-----------|----------------------|--------------------|
-------------------|-----------|----------------------|--------------------|
-------------------|-----------|----------------------|--------------------|
-------------------|-----------|--0---------0---------|--0-----------------|
-------------------|-----------|----------------------|--------------------|
 
 
  Q    Q    Q    Q       Q    Q    H           Q    Q    Q    Q     
----------------------|---------------------|----------------------|
----------------------|---------------------|----------------------|
----------------------|---------------------|----------------------|
----------------------|---------------------|----------------------|
--0---------0---------|--0------------------|----------------------|
----------------------|---------------------|--1---------1---------|
 
 
  Q    H.              Q    Q    Q    Q       Q    Q    H         
--------------------|----------------------|---------------------|
--------------------|----------------------|---------------------|
--------------------|----------------------|---------------------|
--------------------|----------------------|---------------------|
--------------------|----------------------|---------------------|
--1-----------------|--1---------1---------|--1---------1--------|
 
 
  E  Q    E  E  E  E  E     E  E  E  E  E  E  E  E     Q    Q    Q    Q     
-------------------------|--------------------------|----------------------|
-------------------------|--------------------------|----------------------|
-------------------------|--------------------------|----------------------|
--2----------------------|--0-----0-----------------|----------------------|
----------2--3--0-----3--|--------------3-----------|--0---------0---------|
-------------------------|--------------------4-----|----------------------|
 
 
  Q    H.              Q    Q    Q    Q       Q    Q    H         
--------------------|----------------------|---------------------|
--------------------|----------------------|---------------------|
--------------------|----------------------|---------------------|
--------------------|----------------------|---------------------|
--0-----------------|--0---------0---------|--0------------------|
--------------------|----------------------|---------------------|
 
 
  Q    Q    Q    Q       Q    H.              Q    Q    Q    Q     
----------------------|--------------------|----------------------|
----------------------|--------------------|----------------------|
----------------------|--------------------|----------------------|
----------------------|--------------------|----------------------|
----------------------|--------------------|----------------------|
--1---------1---------|--1-----------------|--1---------1---------|
 
 
  Q    Q    H           Q    Q    Q    Q       Q    H.            
---------------------|----------------------|--------------------|
---------------------|----------------------|--------------------|
---------------------|----------------------|--------------------|
---------------------|----------------------|--------------------|
---------------------|--0---------0---------|--0-----------------|
--1---------1--------|----------------------|--------------------|
 
 
  Q    Q    Q    Q       Q    Q    H           Q    Q    Q    Q     
----------------------|---------------------|----------------------|
----------------------|---------------------|----------------------|
----------------------|---------------------|----------------------|
----------------------|---------------------|----------------------|
--0---------0---------|--0------------------|----------------------|
----------------------|---------------------|--1---------1---------|
 
 
  Q    H.              Q    Q    Q    Q       Q    Q    H         
--------------------|----------------------|---------------------|
--------------------|----------------------|---------------------|
--------------------|----------------------|---------------------|
--------------------|----------------------|---------------------|
--------------------|----------------------|---------------------|
--1-----------------|--1---------1---------|--1---------1--------|
 
 
  E  Q    E  E  E  E  E     E  E  E  E  E  E  E  E     E  E  E  E  E  Q.      
-------------------------|--------------------------|------------------------|
-------------------------|--------------------------|------------------------|
-------------------------|--------------------------|------------------------|
--2----------------------|--0-----0-----------------|------------------------|
----------2--3--0-----3--|--------------3-----------|--0-----2-----3---------|
-------------------------|--------------------4-----|------------------------|
 
 
  E  E  E  E  E  Q.        E  E  E  E  E  Q.        E  E  E  E  E  Q.      
------------------------|------------------------|------------------------|
------------------------|------------------------|------------------------|
------------------------|------------------------|------------------------|
------------------------|------------------------|--0-----------0---------|
--2--0-----0--2---------|--0-----2-----3---------|-----3--2--3------------|
--------4---------------|------------------------|------------------------|
 
 
  E  E  E  E  E  E  E  E     H        H           H        H         
--------------------------|--------------------|--------------------|
--------------------------|--------------------|--------------------|
--------------------------|--------------------|--------------------|
--------------------0-----|--------------------|--------------------|
--0-----2-----3-----------|--3--------2--------|--0-----------------|
--------------------------|--------------------|-----------3--------|
 
 
  W                   W                   W                 
-------------------|-------------------|-------------------|
-------------------|-------------------|-------------------|
-------------------|-------------------|-------------------|
-------------------|-------------------|-------------------|
-------------------|-------------------|-------------------|
--1----------------|-------------------|-------------------|
 
 
  W                    
---------------------||
---------------------||
-------------------*-||
-------------------*-||
---------------------||
---------------------||
 
 
 
 
Duration Legend
---------------
W - whole
H - half
Q - quarter
E - 8th
S - 16th
T - 32nd
X - 64th
. - note dotted
|-n-|  - n-tuplets
Login or Register to remove this ad.

7 comments on Kefka's Theme

9 guitars just shows his

9 guitars just shows his awesomeness

cool

cool

wow i love you

5

wow i love you

I love it, it sounds

5

I love it, it sounds amazing. Thanks

Sounds Great!

5

Sounds Great!

trumpet sounds awesome!

trumpet sounds awesome!

holy shit!!!!!!!!! this is

holy shit!!!!!!!!! this is awesome