Ads

Gogo's Theme (Final Fantasy VI) Guitar Tab

Submitted: Mar 22, 2008 by Zelos (Last updated: Oct 07, 2009)

4
Average: 4 (3 votes)
Download | Listen
Game: Final Fantasy VI
Composer(s): Nobuo Uematsu
Style: Transcription
Series: Final Fantasy

This song is also called Gogo

AutoScroll: Slow | Medium | Fast
Gogo's Theme   
~Final Fantasy VI~
Composed by: Nobuo Uematsu
Arranged by: Zelos                                 


Guitar 
BPM = 120  
Difficulty: Easy-Medium (Just try to understand the triplets...somehow...)


                                          |-3-|               
                               S. E  T E  S S S S. E  T Q     
E||-------|-------|-------||----------------------------6----|
B||-------|-------|-------||---8----------5-6-7-8------------|
G||-------|-------|-------||*----------7---------------------|
D||-------|-------|-------||*--------------------------------|
A||-------|-------|-------||---------------------------------|
E||-------|-------|-------||---------------------------------|


     3   |--3--|  3                   3    3    3    3    3    3    3    3   
  S. X S E  E  E  E  S. Q.     T    S X S. E  S X S. E  S X S. E  S X S. E   
--5------5-----------------------|------------------------------------------|
---------------5--7--8-----------|--8------8---------6---------3------------|
------------7--------------------|------------7---------8---------5------3--|
---------------------------------|------------------------------------------|
---------------------------------|------------------------------------------|
---------------------------------|------------------------------------------|


                                         |-3-|               
  S. E  T Q    S. Q.     T    S. E  T E  S S S S. E  T Q     
---------------------------|---------------------------6----|
----------2----3-----------|--8----------5-6-7-8------------|
--2------------------------|----------7---------------------|
---------------------------|--------------------------------|
---------------------------|--------------------------------|
---------------------------|--------------------------------|


     3   |--3--|  3       3    3         
  S. X S E  E  E  E  S. S E  S X S. S T  
--5------5------------------------------|
---------------5--7--8--------------3-L-|
------------7-------------2--3----------|
----------------------------------------|
----------------------------------------|
----------------------------------------|


  3   3    3    3    3            3 3 3    3                        3  
  X S X S. E  S X S. E  S E.  E.  T T X    X S. E  T Q    S. Q.     T  
----------------------------------------|-----------------------------|
--L-4------4--3------2--1---------------|-----------------------------|
------------------------------2---L-L-L-|----3------------0-----------|
----------------------------------------|------------4----------------|
----------------------------------------|-----------------------------|
----------------------------------------|-----------------------------|


             |-3-|                    3   |--3--|  3               
  S. E  T E  S S S S. E  T Q       S. X S E  E  E  E  S. Q.     T  
---------------------------6----|--5------5-----------------------|
--8----------5-6-7-8------------|---------------5--7--8-----------|
----------7---------------------|------------7--------------------|
--------------------------------|---------------------------------|
--------------------------------|---------------------------------|
--------------------------------|---------------------------------|


    3    3    3    3    3    3    3    3                               
  S X S. E  S X S. E  S X S. E  S X S. E     S. E  T Q    S. Q.     T  
------------------------------------------|---------------------------|
--8------8---------6---------3------------|----------2----3-----------|
------------7---------8---------5------3--|--2------------------------|
------------------------------------------|---------------------------|
------------------------------------------|---------------------------|
------------------------------------------|---------------------------|


             |-3-|                    3   |--3--|  3       3    3         
  S. E  T E  S S S S. E  T Q       S. X S E  E  E  E  S. S E  S X S. S T  
---------------------------6----|--5------5------------------------------|
--8----------5-6-7-8------------|---------------5--7--8--------------3-L-|
----------7---------------------|------------7-------------2--3----------|
--------------------------------|----------------------------------------|
--------------------------------|----------------------------------------|
--------------------------------|----------------------------------------|


  3   3    3    3    3            3 3 3    3                        3  
  X S X S. E  S X S. E  S E.  E.  T T X    X S. E  T Q    S. Q.     T  
----------------------------------------|-----------------------------|
--L-4------4--3------2--1---------------|-----------------------------|
------------------------------2---L-L-L-|----3------------0-----------|
----------------------------------------|------------4----------------|
----------------------------------------|-----------------------------|
----------------------------------------|-----------------------------|


    3    3    3    3     3   3             3    3    3    3            
  S X S. E  S X S. E  S. X S H           S X S. E  S X S. E  H         
--------------------------------------|-------------------------------|
--3------3--3------2--1---------------|--3------3--2------1-----------|
-----------------------------3--------|----------------------3--------|
--------------------------------------|-------------------------------|
--------------------------------------|-------------------------------|
--------------------------------------|-------------------------------|


  3      |--3--|  |--3--|  3          |--3--|  |--3--|            
  X E  T E  E  E  E  E  E  E  Q       E  E  E  E  E  E  H         
--L--------------------------------|--------------------6--------|
---------6--------6-----------6----|--------6--------------------|
----7--L----7--L-------------------|--7--L-----8--6--7-----------|
---------------------8--6--7-------|-----------------------------|
-----------------------------------|-----------------------------|
-----------------------------------|-----------------------------|


                           3    3    3             3   
  Q    Q    Q    Q       S X S. E  S X S. H        E   
-------5----6----5----|--6------6--5------------------|
--8-------------------|-------------------8--------L--|
----------------------|-------------------------------|
----------------------|-------------------------------|
----------------------|-------------------------------|
----------------------|-------------------------------|


  3             3     |---3---|   3     3  
  X S. Q.     T T  S  E   E   E   E   S X  
----------------9-10-13--10---------------|
--L-9------------------------11-----------|
---------------------------------10--12-L-|
------------------------------------------|
------------------------------------------|
------------------------------------------|


  3            |---3---|   3   3     3    3            |---3---|   3  3    3  
  X  H         E   E   E   E   E   S X    X  H         E   E   E   E  E  S X  
---------------------------------------|-------------------------------------|
---------------------------------------|-------------------------------------|
--L-13--------13--13--13--13--12--11-L-|--L-10--------10--10--10--10--9--8-L-|
---------------------------------------|-------------------------------------|
---------------------------------------|-------------------------------------|
---------------------------------------|-------------------------------------|


  3    3     3     3     3     3     3     3       3  
  X  S X S.  E   S X S.  E   S X S.  E   S X S.  S X  
-----------------------------------------------------|
-----------------------------------------------------|
-----------------------------------------------------|
------------12----------12----------12----------12---|
----10----------13----------10----------13-----------|
-----------------------------------------------------|


  3 3    3     3     3     3     3     3     3       3    
  X X  S X S.  E   S X S.  E   S X S.  E   S X S.  S X    
--------------------------------------------------------||
--------------------------------------------------------||
-------------------------------------------------------*||
--------------12----------12----------12----------12---*||
------10----------13----------10----------13------------||
--------------------------------------------------------||




Duration Legend
---------------
W - whole
H - half
Q - quarter
E - 8th
S - 16th
T - 32nd
X - 64th
. - note dotted
|-n-|  - n-tuplets


Tablature Legend
----------------
L - tied note
Login or Register to remove this ad.

1 comment on Gogo's Theme

e---------------------------

e----------------------------
B----------------------------
G--3--------6--5-5---0-2-3---
D----3-s-8---------3---------
A----------------------------
E----------------------------

e----------------------------
B----------------------------
G--3-3-----------------------
D------3--6-4-3----------2-3-
A----------------6--4--3-----
E----------------------------

e----------------------------
B----------------------------
G--3-------6--5-5---0-2-3----
D----3-s-8--------3----------
A----------------------------
E----------------------------

e-------------1--------------
B--4-4--3-2-1----------------
G----------------3--4--3-----
D----------------------------
A----------------------------
E----------------------------