Ads

Gau (Final Fantasy VI) Guitar Tab

Submitted: Oct 03, 2007 by archard

3.8
Average: 3.8 (5 votes)
Download | Listen
Game: Final Fantasy VI
Composer(s): Nobuo Uematsu
Style: Transcription
Series: Final Fantasy

AutoScroll: Slow | Medium | Fast
Gau
Final Fantasy 6
Composed by Nobuo Uematsu

8/17/06

e-------------------------0-2-3-----------------------------------------
B-----0---0---------3------------0-2-3-----1-0-1----0-1-----0---0------0
G-----------2-0---0------------------------------2------------2---0--2--
D--0------------4-------------------------------------------------------
A-----------------------------------------------------------------------
E-----------------------------------------------------------------------

e---------------------0-----0------------------------------------------
B--0--2--3---0----------3-2---3-2-3-0--------0--2--3---0--------0--2--4
G----------------------------------------------------------------------
D----------------------------------------------------------------------
A----------------------------------------------------------------------
E----------------------------------------------------------------------
Login or Register to remove this ad.