Figaro Castle (Final Fantasy VI) Guitar Tab

Submitted: Nov 17, 2007 by archard

3.714285
Average: 3.7 (7 votes)
Download | Listen
Game: Final Fantasy VI
Composer(s): Nobuo Uematsu
Style: Transcription
Series: Final Fantasy

This song is also called Edgar and Sabin Theme

AutoScroll: Slow | Medium | Fast
Tuning:Standard

e|--------------------------------------------------------------------------|
B|--------------------------------------------------------------------------|
G|-2-5-4---0-2-5-4---0-2-5-4-0---7-5-7-5-0-2--------------------------------|
D|--------------------------------------------------------------------------|
A|--------------------------------------------------------------------------|
E|--------------------------------------------------------------------------|

e|--------------------------------------------------------------------------|
B|--------------------------------------------------------------------------|
G|-2-5-4---0-2-5-4---0-2-5-4-0---7-5-7-9-5-7--------------------------------|
D|--------------------------------------------------------------------------|
A|--------------------------------------------------------------------------|
E|--------------------------------------------------------------------------|

e|--------------------------------------------------------------------------|
B|--------------------------------------------------------------------------|
G|-7-5-7-9-5----------------------------------------------------------------|
D|-------------7-5-7-10-7---5-3-5-7-3-0---0-2-3-7---------------------------|
A|--------------------------------------------------------------------------|
E|--------------------------------------------------------------------------|

e|---------------------------------------------------------------------------|
B|-7-5-7-9-5-----------------------------------------------------------------|
G|-------------7-5-7-10-7---8---8887578---8887578---888757-8-8--8-8-8-8------|
D|---------------------------------------------------------------------------|
A|---------------------------------------------------------------------------|
E|---------------------------------------------------------------------------|
Login or Register to remove this ad.

1 comment on Figaro Castle

Hard to play at some parts

5

Hard to play at some parts but sounds good ^^