Devil's Lab (Final Fantasy VI) Bass Tab

Submitted: Oct 03, 2007 by archard (Last updated: May 07, 2008)

5
Average: 5 (4 votes)
Download | Listen
Game: Final Fantasy VI
Composer(s): Nobuo Uematsu
Style: Transcription
Series: Final Fantasy

AutoScroll: Slow | Medium | Fast
Devil's Lab
Final Fantasy 6/3jap (Snes/ PSX)
Nobuo Uematsu

Part 1
G-------------------1------------------------
D------2------1-2-4--------------------------
A--4-4----3-4---------3-4-4--3-4-4-----------
E--------------------------------------------	

G------1-------------------------------------
D--2-2---2-4-4-4-4---------------------------
A------------------1-2-3--4-4--3-4-4---------
E--------------------------------------------

Part 2
G------1----------1-2-2---2-2---2-2-------
D--2-2---2-4-----4------------------------
A------------4-4--------0-----0-----0-----
E-----------------------------------------

G--2-2---------5-----5-----5-----5-4-3-2--
D-----------------------------------------
A------0-2-3-3---3-3---3-3---3-3----------
E-----------------------------------------

G--1-1------------------------------------
D--------4-4---2-2--2-2--2-2--------------
A-----------------------------------------
E-----------------------------------------

G-----------------------------------------
D--2-2-1-0--------------------------------
A-----------------------------------------
E-----------------------------------------

Play part 1 3 times then onto part 2. Then
Just repeat The whole thing as much as you like.

Tab by: [email protected]
Login or Register to remove this ad.

3 comments on Devil's Lab

Awesome

5

Awesome

spot on

5

spot on

agree wit 2 people below

great job