Login or Register to remove this ad.

Coin Song (Final Fantasy VI) Guitar Tab

Submitted: Oct 03, 2007 by Stamen47 (Last updated: Sep 19, 2009)

4.894735
Average: 4.9 (19 votes)
Download | Listen
Game: Final Fantasy VI
Composer(s): Nobuo Uematsu
Style: Arrangement, Fingerstyle
Series: Final Fantasy

AutoScroll: Slow | Medium | Fast
Coin Song
Final Fantasy 6
Composed by Nobuo Uematsu

Guitar
     Q    Q    Q    Q       W                   Q    Q    Q    Q
E||-------7----6---------|--4----------------|-------4----2---------|
B||--9----9----7----7----|--4----------------|--5----5----3----1----|
G||-------9----8----8----|--5----------------|--6----6----2----1----|
D||-----------------8----|--6----------------|--7---------0----1----|
A||--7---------6---------|-------------------|----------------------|
E||----------------------|-------------------|----------------------|

  H        E  E  E  E     E  E  E  E   Q     Q       E  E  E  E  Q    Q
-----------------0--4--|--9-----7--9--11----------|--------------7---------|
--2--------2--4--------|--------------12----12----|--9-----7--9--9----9----|
-----------------------|-----6--9-----11----------|-----------9--8---------|
--2--------------------|--7-----------13----------|-----6--9---------------|
--4--------------------|--------------------------|--7---------------------|
-----------------------|--------------------------|------------------------|

  E  E  E  E  Q    Q       E  E  E  E  E  E  E  E     E  E  E  E   Q     Q
--------------4----0----|-----------------------4--|--9-----7--9--11----------|
--7-----5--7--4---------|-----------------4--5-----|--------------12----12----|
-----------5--5---------|--6--------------4--3-----|-----6--9-----11----------|
-----4--7-----6---------|--------6--------------6--|--7-----------13----------|
--5---------------------|--4--7-----7--4-----------|--------------------------|
------------------------|--------------------------|--------------------------|

  E  E  E  E  Q    Q       E  E  E  E  Q    E  E     Q    E  E  H
--------------7---------|--------------4----6--8--|--9-------------------|
--9-----7--9--9----9----|--7-----5--7--4----5-----|--7-------------------|
-----------9--8---------|-----------5--5-------8--|--6-------------------|
-----6--9---------------|-----4--7-----6----------|-------6--------------|
--7---------------------|--5----------------------|----------9--8--------|
------------------------|-------------------------|-------------9--------|

  E   E   E   E  E   E   E   E      E   E  H.
--7---9------------------9--14--|--12------9------------|
---------10------9--10----------|-----------------------|
---------11--11-----------------|----------9------------|
-----11--------------9--11------|------11---------------|
--9-------------------------12--|-----------------------|
--------------------------------|---9-------------------|

  E   E   E  E  E  E   E   E     E  E  Q.     E   E  E
--9--10-------------------10--|--9----------------------|
---------10--7-----7--10------|--------7----------------|
-------------7--7-------------|-----6-------------------|
----------9-------------------|---------------9--11--7--|
------9-----------------------|--9----------------------|
--7---------------------------|-------------------------|

  E   E   E   E  E   E   E   E      E   E   H.
--7---9------------------9--14--|--16------12------------|
---------10------9--10----------|------------------------|
---------11--11-----------------|-----------9------------|
-----11--------------9--11------|------11----------------|
--9-------------------------12--|------------------------|
--------------------------------|---9--------------------|

  E  E  E  E  H           E   E   E  E  E  Q    E     E  E  E  E  H
-----------------------|--9--10--------------------|-----------------------|
--2--3-----------------|---------10--9--7----------|-----------------------|
-----2--2--1-----------|---------------------------|--4--5--0--------------|
--0-----------4--------|--0----------------4----0--|-----5-----4--2--------|
--------------0--------|-------------0-------------|--3--------------------|
-----------2-----------|---------------------------|-----------0--3--------|

  E  E  E  E  E  E  E  E     E  E  E  Q    E  E  E     E  E  E  E  H
--7--8--------------------|--2--------2-------------|-----------2--6--------|
--------8--7--5-----------|--------2-------2--------|--------2--------------|
--------------------------|-------------------4-----|--3--------------------|
--------------------0--2--|-----4----------------4--|-----4-----------------|
--3--------------3-----3--|-------------------------|-----------------------|
-----------3-----0--------|--2-------------------2--|--2--------------------|

  E  E  E  Q    E  E  E     E  E  E  E  H
-----------4-------------|-----------4--8--------||
--------4-------4--------|--------4--------------||
-------------------6-----|--5--------------------||
-----6----------------6--|-----6-----------------||
-------------------------|-----------------------||
--4-------------------4--|--4--------------------||

Duration Legend
---------------
W - whole
H - half
Q - quarter
E - 8th
S - 16th
T - 32nd
X - 64th
. - note dotted
|-n-|  - n-tuplets
Login or Register to remove this ad.

3 comments on Coin Song

I've been playing this over

5

I've been playing this over and over again. Thanks!

Yeah, this one is definitely

Yeah, this one is definitely worth the effort learning it. Waaaay better than the version in the official arrangement book.
Kudos to stamen ;)

PS: Isn't OpenKORE an RO botting interface? ;O

This song is cash

5

This song is cash money.

...

...

I'll show myself out.

(a couple spots are pretty rough but I can dumb them down for my left hand)