Battle Theme (Final Fantasy VI) Guitar Tab

Submitted: Sep 23, 2006 by archard (Last updated: May 31, 2008)

3.875
Average: 3.9 (8 votes)
Download | Listen
Game: Final Fantasy VI
Composer(s): Nobuo Uematsu
Style: Transcription
Series: Final Fantasy

AutoScroll: Slow | Medium | Fast
Battle Theme
Final Fantasy VI
Composed by Nobuo Uematsu

9/23/06

e-----------------
B-----------------
G-----------------
D--0-0-0-0-0-0----
A--------------3-3
E----------------- x2

e--------0-3-1---1--0----------------------------
B----0-1-------3------------3-1------------------
G--2-------------------2--------3-2-----------0--
D------------------------------------2----2-3---2
A------------------------------------------------
E------------------------------------------------

e--------0-3-1---1--0------------------------
B----0-1-------3----------3--1---------------
G--2-------------------2-------3-2--------0-2
D-------------------------------------2-3----
A--------------------------------------------
E--------------------------------------------

e---------------------------------------------------------------2
B----------1-1----------------------------1-1---3-1-----------2--
G--2-2---3-------3-2-3-2------3---2-2---3-----------3-2-----3----
D-------------------------2-3---------------------------2--------
A----------------------------------------------------------------
E----------------------------------------------------------------

That's all I got.
Login or Register to remove this ad.

11 comments on Battle Theme

Just starting to learn this

Just starting to learn this one, it seems pretty easy. Looking good so far!

retarded

retarded

not very good , the tab is

not very good , the tab is some strange. play it in the high tones , its better

I agree this song sould be

I agree this song sould be played higer but in the long run its good

The pitch sounds pretty good

The pitch sounds pretty good to me....?

It's not so bad. Those last

It's not so bad. Those last few notes need some fixing up, though. After the three sixteenth notes (the first three of the last six notes) there is a third fret on D, and the last three notes are 2 1 1 instead of 3 2 2, if I'm remembering the song right. Good job. Oh, the last line repeats once before looping.

actually the 3 2 2 's right

actually the 3 2 2 's right (but i play it 8 7 6 on the D-B strings..) that was the hardest 3 notes to figure out! it sounds different i think due to the bass notes under it.

hey u should finish this its

hey u should finish this its good :)

For love of all that is

For love of all that is pudding, please finish this. I'm a pretty good guitarist/songwriter/tabber myself, but this song has eluded me for years!

I like what the last guy

I like what the last guy said, thats how I feel a lot of the time. I think its uemetsu personally, he has a way of coming up with sequences that are so brilliant they just kinda leave my mind behind, and when someone finally tabs them i'm like OH! that's simple! That is a hard song to tab, the ending of the tab isn't quite right but again, its not finished, and the rest of it is definitely on, and fun, too.

great tab but i like playin

3

great tab but i like playin it on higher frets