Another World of Beasts (Final Fantasy VI) Guitar Tab

Submitted: Aug 30, 2006 by archard (Last updated: May 31, 2008)

3.333335
Average: 3.3 (3 votes)
Download | Listen
Game: Final Fantasy VI
Composer(s): Nobuo Uematsu
Style: Transcription
Series: Final Fantasy

AutoScroll: Slow | Medium | Fast
Another World of Beasts
Final Fantasy VI
Composed by Nobuo Uematsu

8/30/06

e--6-------------4-6----------6-------------4-0-----7-----
B--------6-7------------------------6-7-------------------
G---------------------------------------------------------
D---------------------------------------------------------
A---------------------------------------------------------
E---------------------------------------------------------

e--6-------------4-6-------------2---0---------------------2---0-------------
B--------6-7------------------0---------4--2---0--4-----0---------4--2---0--4
G----------------------------------------------------------------------------
D----------------------------------------------------------------------------
A----------------------------------------------------------------------------
E----------------------------------------------------------------------------

e--6---5-4-3-2-----------------------6---5-4-3-2------------
B------------------6-5-4-3---------------------------6-5-4-3
G------------------------------3----------------------------
D-----------------------------------------------------------
A-----------------------------------------------------------
E-----------------------------------------------------------
Login or Register to remove this ad.

1 comment on Another World of Beasts

Extremely spooky song. Use

Extremely spooky song. Use with caution.