The Ancient Library (Final Fantasy V) Guitar Tab

Submitted: Oct 03, 2007 by archard

5
Average: 5 (1 vote)
Download | Listen
Game: Final Fantasy V
Composer(s): Nobuo Uematsu
Style: Transcription
Series: Final Fantasy

AutoScroll: Slow | Medium | Fast
The Secret Library
Final Fantasy V
Composed by Nobuo Uematsu

9/3/06

e--8-7------------6-5------------4-3-----------------------
B------8--------------6--------------4----------1-3-4-----3
G----------------------------------------------------------
D-----------------------------------------------------4-5--
A----------------------------------------------------------
E----------------------------------------------------------

e--8-7------------6-5------------3-2------------1-0--
B------8--------------6--------------3--------------1
G----------------------------------------------------
D----------------------------------------------------
A----------------------------------------------------
E----------------------------------------------------

Repeat from beginning then..

e----------3---1-------1---6---4-3-1-0-1-3-------1-3-
B--1-3-4---------4-3-4---------------------4-3-4-----
G--------0---------------3---------------------------
D----------------------------------------------------
A----------------------------------------------------
E----------------------------------------------------

e--4-3-1-3-6-10---------3---1-------1---6---4-3-1-0-1-3-4
B---------------1-3-4---------4-3-4----------------------
G---------------------0---------------3------------------
D--------------------------------------------------------
A--------------------------------------------------------
E--------------------------------------------------------

e--3-1--------
B------4-3-1-0
G-------------
D-------------
A-------------
E-------------
Login or Register to remove this ad.