Reminiscence (Final Fantasy V) Guitar Tab

Submitted: Oct 03, 2007 by archard

5
Average: 5 (1 vote)
Download | Listen
Game: Final Fantasy V
Composer(s): Nobuo Uematsu
Style: Transcription
Series: Final Fantasy

AutoScroll: Slow | Medium | Fast
Reminiscence
Final Fantasy 5
Composed by Nobuo Uematsu

8/17/06

e--13---12---10---8-----6-5-10-5---6-5-10-5
B------------------------------------------
G------------------------------------------
D------------------------------------------
A------------------------------------------
E------------------------------------------ x2

Then the voices come in...

e--8---7---5---3-----1-0-5-0---1-0-5-0
B-------------------------------------
G-------------------------------------
D-------------------------------------
A-------------------------------------
E-------------------------------------

e--8---7---5---3---1
B-------------------
G-------------------
D-------------------
A-------------------
E-------------------
Login or Register to remove this ad.

1 comment on Reminiscence

Good Night Final Fantasy

Good Night
Final Fantasy V
e----------1-----0------
B----1-2-4----1-----1--4
G--3--------------------
D-----------------------
A-----------------------
E-----------------------