Nostalgia (Final Fantasy V) Guitar Tab

Submitted: Oct 03, 2007 by archard

0
Download | Listen
Game: Final Fantasy V
Composer(s): Nobuo Uematsu
Style: Transcription
Series: Final Fantasy

AutoScroll: Slow | Medium | Fast
Nostalgia
Final Fantasy V
Composed by Nobuo Uematsu

8/17/06

e-------10-11-13--15--10----------10-11-13--15--10---
B-----8-------------------------8--------------------
G--10------------------------10----------------------
D----------------------------------------------------
A----------------------------------------------------
E----------------------------------------------------

e-------10----------10-----3-1-1-------3
B-----8-----------8--------------4-3-4--
G--10----------10-----------------------
D---------------------------------------
A---------------------------------------
E---------------------------------------

e-------10-11-13--15--10----------10-11-13--15--10---
B-----8-------------------------8--------------------
G--10------------------------10----------------------
D----------------------------------------------------
A----------------------------------------------------
E----------------------------------------------------

e-------10----------10-----3-1-1--------
B-----8-----------8--------------4-3-4-1
G--10----------10-----------------------
D---------------------------------------
A---------------------------------------
E---------------------------------------

e--13-11-8-11-10-8-7-5-3----------8----------10---
B-------------------------------8----------8------
G----------------------------10---------10--------
D-------------------------------------------------
A-------------------------------------------------
E-------------------------------------------------

e--13-11-8-11-10-8-7-5-3-----3-1-1--------3
B----------------------------------4-3-4---
G------------------------------------------
D------------------------------------------
A------------------------------------------
E------------------------------------------
Login or Register to remove this ad.