Lenna's Theme (Final Fantasy V) Guitar Tab

Submitted: Oct 03, 2007 by archard

0
Download | Listen
Game: Final Fantasy V
Composer(s): Nobuo Uematsu
Style: Transcription
Series: Final Fantasy

AutoScroll: Slow | Medium | Fast
Lenna's Theme
Final Fantasy V
Composed by Nobuo Uematsu

8/6/06

e-----3--1--0----0---------0----------------------
B--1-----------3---0-----3---0-----0-3-1----------
G--------------------------------2-------2--------
D-------------------------------------------------
A-------------------------------------------------
E-------------------------------------------------

e-------------------------------------
B----------------0---------0---------2
G------2-----------------------0---0--
D--0-2-----2-0-2-------0-2-------2----
A-------------------------------------
E-------------------------------------

e---------3-1-0----0---------0----------------------
B----0-1---------3---0-----3---0-----0-3-1----------
G--2-------------------------------2-------2--------
D---------------------------------------------------
A---------------------------------------------------
E---------------------------------------------------

e-------------------------------------
B----------------0---------0----------
G------2-----------------------0---0-2
D--0-2-----2-0-2-------0-2-------2----
A-------------------------------------
E-------------------------------------

e--------------5--3---0----------------5--3
B--1---0-1-3----------------1---0-1-3------
G------------------------------------------
D------------------------------------------
A------------------------------------------
E------------------------------------------
Login or Register to remove this ad.