Home, Sweet Home (Final Fantasy V) Guitar Tab

Submitted: Feb 23, 2008 by dma83 (Last updated: Sep 11, 2009)

2.333335
Average: 2.3 (3 votes)
Download | Listen
Game: Final Fantasy V
Composer(s): Nobuo Uematsu
Style: Transcription
Series: Final Fantasy

AutoScroll: Slow | Medium | Fast
My Home Sweet Home - Final Fantasy V - SNES
Tabbed by Steve Havens, [email protected]

This isn't the whole thing.

|-------------17-16----------16-14----------------|
|-----19--19--------19-17-19----------------------|
|-16--------------------------------16--14--16----|
|-------------------------------------------------|
|-------------------------------------------------|
|-------------------------------------------------|

|-------------17-16----------16-----19------19----|
|-----19--19--------19-17-19----19------22--------|
|-16----------------------------------------------|
|-------------------------------------------------|
|-------------------------------------------------|
|-------------------------------------------------|

|-----------------------------------|
|-----------------------------------|
|----------7--6-------7-------------|
|----9--9-------9-7-9----9--7--9----|
|-----------------------------------|
|-7---------------------------------|

|------------------------7------7---|
|---------------------------10------|
|----------7--6-------7-------------|
|----9--9-------9-7-9---------------|
|-----------------------------------|
|-7---------------------------------|

|-7--7-10---------------------------|
|---------10-8-7--10--7-------------|
|------------------------9----------|
|---------------------------9--7--9-|
|-----------------------------------|
|-----------------------------------|

|------------------------7------7---|
|---------------------------10------|
|----------7--6-------7-------------|
|----9--9-------9-7-9---------------|
|-----------------------------------|
|-7---------------------------------|
Login or Register to remove this ad.