Battle With Gilgamesh (Final Fantasy V) Bass/Guitar Tab

Submitted: Dec 05, 2007 by CpxAzn (Last updated: Apr 16, 2010)

4.545455
Average: 4.5 (11 votes)
Download | Listen
Game: Final Fantasy V
Composer(s): Nobuo Uematsu
Style: 2 or more instruments, Alternate picking, Sweep picking, Transcription
Series: Final Fantasy

This song is also called Clash at the Big Bridge

AutoScroll: Slow | Medium | Fast
                    Clash on the Big Bridge AKA Gilgamesh                       


                                                                 Final Fantasy V
Guitar A



D#||-------|-------|-------|-------|
A#||-------|-------|-------|-------|
F#||-------|-------|-------|-------|
C#||-------|-------|-------|-------|
G#||-------|-------|-------|-------|
D#||-------|-------|-------|-------|


  S S  S  S  S S S  S  S  S S  S  S  S  S  S S S  S  S  S S S S  
-----------------9-14-16-14-9-14-16-21-16-14-9------------------|
---------------9-------------------------------9----------------|
------------11-----------------------------------11-------------|
---------11-----------------------------------------11----------|
----9-11-----------------------------------------------11-9-----|
--9---------------------------------------------------------9-4-|


  S S  S  S  S S S  S  S  S S  S  S  S  S  S S S  S  S  S S S S  
-----------------9-14-16-14-9-14-16-21-16-14-9------------------|
---------------9-------------------------------9----------------|
------------11-----------------------------------11-------------|
---------11-----------------------------------------11----------|
----9-11-----------------------------------------------11-9-----|
--9---------------------------------------------------------9-4-|


  S S  S  S  S S S  S  S  S S  S  S  S  S  S S S  S  S  S S S S  
-----------------9-14-16-14-9-14-16-21-16-14-9------------------|
---------------9-------------------------------9----------------|
------------11-----------------------------------11-------------|
---------11-----------------------------------------11----------|
----9-11-----------------------------------------------11-9-----|
--9---------------------------------------------------------9-4-|


  S S  S  S  S S S  S  S  S S  S  S  S  S  S S S  S  S  S S S S  
-----------------9-14-16-14-9-14-16-21-16-14-9------------------|
---------------9-------------------------------9----------------|
------------11-----------------------------------11-------------|
---------11-----------------------------------------11----------|
----9-11-----------------------------------------------11-9-----|
--9---------------------------------------------------------9-4-|


  Q     Q     Q    Q     E.  S  Q    Q     Q    Q     
-----------------------------------------------------|
-------12----11---------11---L-10---------10----9----|
-----------------------------------------------------|
-------11----10---------10---L--9----------9----8----|
-----------------------------------------------------|
-----------------------------------------------------|


  S S  S  S  S S S  S  S  S S  S  S  S  S  S S S  S  S  S S S S  
-----------------9-14-16-14-9-14-16-21-16-14-9------------------|
---------------9-------------------------------9----------------|
------------11-----------------------------------11-------------|
---------11-----------------------------------------11----------|
----9-11-----------------------------------------------11-9-----|
--9---------------------------------------------------------9-4-|


  S S  S  S  S S S  S  S  S S  S  S  S  S  S S S  S  S  S S S S  
-----------------9-14-16-14-9-14-16-21-16-14-9------------------|
---------------9-------------------------------9----------------|
------------11-----------------------------------11-------------|
---------11-----------------------------------------11----------|
----9-11-----------------------------------------------11-9-----|
--9---------------------------------------------------------9-4-|


  Q     Q     Q    Q     E.  S  Q       Q     Q    Q    Q    Q    Q     
-------------------------------------|---------------------------------|
-------12----11---------11---L-10----|-------10----9---------9----8----|
-------------------------------------|---------------------------------|
-------11----10---------10---L--9----|--------9----8---------8----7----|
-------------------------------------|---------------------------------|
-------------------------------------|---------------------------------|


                                         |-3-|           
  E  E  E  E  E  E  E  E     E  E  E  E  S S S E  E  E   
--------------------------|-----------------------------|
--------------------------|-----------------------------|
--------------------------|-----------------------------|
--------------------------|-----------------------------|
--------------------------|--------2--3--2-3-2----------|
--2--2-----2--5--2-----2--|--5--2--------------5--2--0--|


  E  E  E  E  E  E  E  E            E   E   E   E   E   E   E   E   
--------------------------|-----|----------------------------------|
--------------------------|-----|----------10------12--10----------|
--------------------------|-----|--11--13------11----------13--11--|
--------------------------|-----|----------------------------------|
--------------------------|-----|----------------------------------|
--2--2-----2--5--4--2-----|-----|----------------------------------|


   E   E   E   E   E   Q     E      E   E   E   E   E   Q     E   
--------------------------------|--------------------------------|
--14------15------14--10----10--|--12------14------12------------|
------11------11----------------|------10------10------13----13--|
--------------------------------|--------------------------------|
--------------------------------|--------------------------------|
--------------------------------|--------------------------------|


   E   E   E   E   E   E   E   E      E   E   E   E   E   E   E   E   
----------------------------------|----------------------------------|
--10--------------10--12--10------|----------10------12--10----------|
------13--11--13--------------13--|--11--13------11----------13--11--|
----------------------------------|----------------------------------|
----------------------------------|----------------------------------|
----------------------------------|----------------------------------|


   E   E   E   E   E   Q     E      E   E   E   E   E   Q     E   
--------------------------------|--------------------------------|
--14------15------14--10----10--|--12------14------12------------|
------11------11----------------|------10------10------13----13--|
--------------------------------|--------------------------------|
--------------------------------|--------------------------------|
--------------------------------|--------------------------------|


   E   E   E   E   E   E   E   E      W                 
--------------10--12--10------10--|--12----------------|
--10--12--14--------------14------|--------------------|
----------------------------------|--------------------|
----------------------------------|--------------------|
----------------------------------|--------------------|
----------------------------------|--------------------|


  Q    E   E   Q     Q        W                    W                 
--L----9--10--12----16----|--14~----------------|--L----------------|
--------------------------|---------------------|-------------------|
--------------------------|---------------------|-------------------|
--------------------------|---------------------|-------------------|
--------------------------|---------------------|-------------------|
--------------------------|---------------------|-------------------|


  Q.      Q.     Q       Q.     Q.     Q       Q.     Q.     Q     
--7~------------------|---------------------|---------------------|
----------7-----------|---------------------|---------7------9----|
-----------------9----|--8------9------8----|--6------------------|
----------------------|---------------------|---------------------|
----------------------|---------------------|---------------------|
----------------------|---------------------|---------------------|


   Q.     Q.      Q        Q     E  Q     E   Q        H         Q     Q     
----------9------11----|--12----11--9----11--12~----|--L--------12----14----|
--11-------------------|----------------------------|-----------------------|
-----------------------|----------------------------|-----------------------|
-----------------------|----------------------------|-----------------------|
-----------------------|----------------------------|-----------------------|
-----------------------|----------------------------|-----------------------|


   Q     E   Q     E   Q         W                 
--16----14--12----14--14b~----|--L----------------|
------------------------------|-------------------|
------------------------------|-------------------|
------------------------------|-------------------|
------------------------------|-------------------|
------------------------------|-------------------|


    Q     E   E   E   E   E   E      E   Q     E   Q     Q     
--/18----15----------------------|----------------------------|
-------------17----------16--17--|---L--17----14--19----17----|
-----------------15--18----------|----------------------------|
---------------------------------|----------------------------|
---------------------------------|----------------------------|
---------------------------------|----------------------------|


   W                    E   E   E   E   E   E   E   E   
---------------------|-------------11--16--14--11------|
--16~----------------|---------13------------------13--|
---------------------|-----13--------------------------|
---------------------|---------------------------------|
---------------------|---------------------------------|
---------------------|---------------------------------|


   Q     E  E   Q     E  E      S   S  S  S  S   S  S  S  S   S  S  S  Q     
--17----16-----15----16-----|--17p-12----12-16p-11----11-15p-10----10-16----|
----------------------------|---------14-----------13-----------12----------|
----------------------------|-----------------------------------------------|
----------------------------|-----------------------------------------------|
----------------------------|-----------------------------------------------|
----------------------------|-----------------------------------------------|


   S   S  S  S  S   S  S  S  S   S  S  S  S   S  S  S  
--21p-16----16-19p-14----14-17p-12----12-16p-11----11-|
---------17-----------16-----------14-----------13----|
------------------------------------------------------|
------------------------------------------------------|
------------------------------------------------------|
------------------------------------------------------|


   S  S  S S  S  S S S  S  S S S  S  S S S    E  E  E  E  E  E  E  E   
--14p-9----9-12p-9---9-12p-9---9-11p-8-----|--------------------------|
--------11---------9---------9---------9---|--------------------------|
-----------------------------------------8-|--6--6-----6--9--6-----6--|
-------------------------------------------|--------------------------|
-------------------------------------------|--------------------------|
-------------------------------------------|--------------------------|


              |-3-|                                                         
  E  E  E  E  S S S E  E  E      Q.     Q.     Q       Q    Q    Q    Q     
-----------------------------|----------------------|----------------------|
--------7--8--7-8-7----------|--10------9------8----|----------------------|
--9--6--------------9--6--4--|---9------8------7----|-------9----8----7----|
-----------------------------|----------------------|-------9----8----7----|
-----------------------------|----------------------|----------------------|
-----------------------------|----------------------|----------------------|


  E   E   E   E   E   E   E   E     E   E   E   E   E   E   E   E   
---------------------------------|---------------------------------|
---------------------------------|---------------------------------|
--6h--8p--6h--8p--6h--8p--6h--8--|--5h--7p--5h--7p--5h--7p--5h--7--|
---------------------------------|---------------------------------|
---------------------------------|---------------------------------|
---------------------------------|---------------------------------|


  E   E   E   E   E   E   E   E     E   E   E   E  H          
---------------------------------|---------------------------|
---------------------------------|---------------------------|
--6h--8p--6h--8p--6h--8p--6h--8--|--5h--7p--5h--7------------|
---------------------------------|---------------------------|
---------------------------------|---------------------------|
---------------------------------|-----------------8\--------|


                                         |-3-|           
  E  E  E  E  E  E  E  E     E  E  E  E  S S S E  E  E   
--------------------------|-----------------------------|
--------------------------|-----------------------------|
--------------------------|-----------------------------|
--------------------------|-----------------------------|
--------------------------|--------2--3--2-3-2----------|
--2--2-----2--5--2-----2--|--5--2--------------5--2--0--|


  E  E  E  E  E  E  E  E      S  S  S  S  S  S  S  S  S  S  S  S  S  S  S  S  
--------------------------|-----------------------------------------------14-|
--------------------------|--------------------------------------14-15-17----|
--------------------------|-----------------------------13-14-16-------------|
--------------------------|--------------------12-14-16----------------------|
--------------------------|-----------12-14-16-------------------------------|
--2--2-----2--5--4--2-----|--12-14-16----------------------------------------|


   S  S  S  S  S  S  S  S  S  S  S  S  S  S  S  S  
--17-14-16-14-17-14-19-14-17-14-16-14-17-14-19-14-|
--------------------------------------------------|
--------------------------------------------------|
--------------------------------------------------|
--------------------------------------------------|
--------------------------------------------------|


   S  S  S  S  S  S  S  S  S  S  S  S  S  S  S  S     Q.      Q     E   E   E   
--20-14-19-14-17-14-16-14-17-14-19-14-17-14-16-14-|--17------16----------------|
--------------------------------------------------|----------------17----------|
--------------------------------------------------|--------------------16--14--|
--------------------------------------------------|----------------------------|
--------------------------------------------------|----------------------------|
--------------------------------------------------|----------------------------|


   Q      E   Q       E   Q         Q.      E  H         
-------------------------------|------------------------|
---------17--------------------|-----------14--L--------|
--16b--------16br----14--13----|------------------------|
-------------------------------|--/16-------------------|
-------------------------------|------------------------|
-------------------------------|------------------------|


    Q.      Q.      E   E      Q.      Q.      Q     
---------------------------|------------------------|
-----------17------15--14--|------------------------|
--/13----------------------|--16------14------13----|
---------------------------|------------------------|
---------------------------|------------------------|
---------------------------|------------------------|


   E   E   E   E   E   E   E   E      W                  
----------------------------------|---------------------|
----------14--15--17--15--14--15--|--17~----------------|
--14--16--------------------------|---------------------|
----------------------------------|---------------------|
----------------------------------|---------------------|
----------------------------------|---------------------|


  Q    E   E   Q     Q        Q.      Q     E   E   E   
-------9--11--12----16----|--14------12----11--12--11--|
--------------------------|----------------------------|
--------------------------|----------------------------|
--------------------------|----------------------------|
--------------------------|----------------------------|
--------------------------|----------------------------|


   E   E  E   Q       S S  E  E     S S S  S S S  S S S S S  S S S  S S  
---------------------------------|--------------------------------------|
--12-----------------------------|--------------------------------------|
------11--9--11br----11-9-11--9--|--8-9-8----9-8------------------------|
---------------------------------|--------11-----11-9-7-9-7----9-7------|
---------------------------------|--------------------------11-----11-9-|
---------------------------------|--------------------------------------|


  S S S S S S S S H            S  S S S S S  S S  S  S  S  S  S  S  S  S  
----------------------------|-------------7-12-7-14-11----------11-12-11-|
----------------------------|-----------9--------------12----12----------|
----------------------------|---------9-------------------11-------------|
----------------------------|-------9------------------------------------|
--7-9-7-6-7-6---------------|--7-11--------------------------------------|
--------------9-7-5~--------|--------------------------------------------|


   Q.        Q     E   Q        S  S  S  S  S  S  S  S  S  S  S  S  S  S  S  S  
--14br------14----12--11----|--14-11----------11-14-11-14-11-------------------|
----------------------------|--------12----12----------------12----------------|
----------------------------|-----------11----------------------11-------------|
----------------------------|--------------------------------------13----------|
----------------------------|-----------------------------------------14-12-11-|
----------------------------|--------------------------------------------------|


   S  S  S  S  S  S  S  S  S  S  S  S  S  S  S  S  
-----------------11-14-11-14-11----------11-14-11-|
--------------12----------------12----12----------|
-----------11----------------------11-------------|
--------13----------------------------------------|
--12-14-------------------------------------------|
--------------------------------------------------|


   S  S  S  S  S  S  S  S  S  S  S  S  S  S  S  S  
--16-12----------12-16-12-16-12-------------------|
--------14----14----------------14----------------|
-----------13----------------------13-------------|
--------------------------------------14----------|
-----------------------------------------16-14-12-|
--------------------------------------------------|


   S  S  S  S  S  S  S  S  S  S  S  S  S  S  S  S  
-----------------12-16-12-16-12----------12-16-12-|
--------------14----------------14----14----------|
-----------13----------------------13-------------|
--------14----------------------------------------|
--14-16-------------------------------------------|
--------------------------------------------------|


   S  S  S  S  S  S  S  S  S  S  S  S  S  S  S  S      Q.      Q.      Q     
--18-15----------15-18-15-18-15----------15-18-15-|--/21------20------21----|
--------17----17----------------17----17----------|-------------------------|
-----------18----------------------18-------------|-------------------------|
--------------------------------------------------|-------------------------|
--------------------------------------------------|-------------------------|
--------------------------------------------------|-------------------------|


   Q.       Q.       Q        E   E   E   E   E   E   E   E   
--21b------21b------21b----|-------------11--16--14--11------|
---------------------------|---------13------------------13--|
---------------------------|-----13--------------------------|
---------------------------|---------------------------------|
---------------------------|---------------------------------|
---------------------------|---------------------------------|


   Q     E  E   Q     E  E      S   S  S  S  S   S  S  S  S   S  S  S  Q     
--17----16-----15----16-----|--17p-12----12-16p-11----11-15p-10----10-16----|
----------------------------|---------14-----------13-----------12----------|
----------------------------|-----------------------------------------------|
----------------------------|-----------------------------------------------|
----------------------------|-----------------------------------------------|
----------------------------|-----------------------------------------------|


   S   S  S  S  S   S  S  S  S   S  S  S  S   S  S  S  
--21p-16----16-19p-14----14-17p-12----12-16p-11----11-|
---------17-----------16-----------14-----------13----|
------------------------------------------------------|
------------------------------------------------------|
------------------------------------------------------|
------------------------------------------------------|


   S  S  S S  S  S S S  S  S S S  S  S S S    E  E  E  E  E  E  E  E   
--14p-9----9-12p-9---9-12p-9---9-11p-8-----|--------------------------|
--------11---------9---------9---------9---|--------------------------|
-----------------------------------------8-|--6--6-----6--9--6-----6--|
-------------------------------------------|--------------------------|
-------------------------------------------|--------------------------|
-------------------------------------------|--------------------------|


              |-3-|                                                         
  E  E  E  E  S S S E  E  E      Q.     Q.     Q       Q    Q    Q    Q     
-----------------------------|----------------------|----------------------|
--------7--8--7-8-7----------|--10------9------8----|----------------------|
--9--6--------------9--6--4--|---9------8------7----|-------9----8----7----|
-----------------------------|----------------------|-------9----8----7----|
-----------------------------|----------------------|----------------------|
-----------------------------|----------------------|----------------------|


  E   E   E   E   E   E   E   E     E   E   E   E   E   E   E   E   
---------------------------------|---------------------------------|
---------------------------------|---------------------------------|
--6h--8p--6h--8p--6h--8p--6h--8--|--5h--7p--5h--7p--5h--7p--5h--7--|
---------------------------------|---------------------------------|
---------------------------------|---------------------------------|
---------------------------------|---------------------------------|


  E   E   E   E   E   E   E   E     E   E   E   E  H          
---------------------------------|---------------------------|
---------------------------------|---------------------------|
--6h--8p--6h--8p--6h--8p--6h--8--|--5h--7p--5h--7------------|
---------------------------------|---------------------------|
---------------------------------|---------------------------|
---------------------------------|-----------------8\--------|


                                         |-3-|           
  E  E  E  E  E  E  E  E     E  E  E  E  S S S E  E  E   
--------------------------|-----------------------------|
--------------------------|-----------------------------|
--------------------------|-----------------------------|
--------------------------|-----------------------------|
--------------------------|--------2--3--2-3-2----------|
--2--2-----2--5--2-----2--|--5--2--------------5--2--0--|


  E  E  E  E  E  E  Q      
-------------------------||
-------------------------||
-------------------------||
-------------------------||
--------------------4----||
--2--2-----2--5--4--2----||




Duration Legend
---------------
W - whole
H - half
Q - quarter
E - 8th
S - 16th
T - 32nd
X - 64th
. - note dotted
|-n-|  - n-tuplets
Login or Register to remove this ad.

6 comments on Battle With Gilgamesh

I can't believe I've never

I can't believe I've never seen this here. Great tab! Thanks for the including the GP file, too.

Kudos! You rock.

Gp file?

Where is the GP file i cant find it :S
Can you send it to me if its been removed please :)

Yeah Boy

5

Yeah Boy

Great tits, this is

4

Great tits, this is advanced. God damn.

This is Kurikinton Fox's

5

This is Kurikinton Fox's arragement (not CPXAzn's, he may have tabbed it using GP5 from the image sheet music Kurikinton had on his website awhile ago which he has since pulled)...I have a copy of Kurikinton's tab from his site (he's the one playing it in the youtube link on the pdf), I will commend you on sharing it.

Wow...

This is quite amazing, now it's my life goal to play this.