Ads

Troian Beauty (Final Fantasy IV) Guitar Tab

Submitted: Feb 23, 2008 by dma83 (Last updated: Sep 11, 2009)

0
Download | Listen
Game: Final Fantasy IV
Composer(s): Nobuo Uematsu
Style: 2 or more instruments, Transcription
Series: Final Fantasy

AutoScroll: Slow | Medium | Fast
SNES - Final Fantasy II/IV - Toroian Beauty
Tabbed by Steve Havens, [email protected]

I tried to line up the parts for the two instruments
as best as I could, but it gets pretty screwy around
the 8th bar. And I'm sure the background part is riddled
with mistakes from that part on.

2x
|-15---------------------------------------------|
|-----15--17------15------12---------------------|
|-------------16------14------12--14------12-----|
|-------------------------------------14------12-|
|------------------------------------------------|
|------------------------------------------------|


|-15---------------------------------------------|
|-----15--17------15------12---------------------|
|-------------16------14------12--14------12-----|
|-------------------------------------14------12-|
|------------------------------------------------|
|------------------------------------------------|
|                                                |
|------------------------------------------------|
|-12--------------15------13--------------12-----|
|------------------------------------------------|
|------------------------------------------------|
|------------------------------------------------|
|------------------------------------------------|


|-13---------------------------------------------|
|-----13--15------13------10---------------------|
|-------------14------12------10--12------10-----|
|-------------------------------------12------12-|
|------------------------------------------------|
|------------------------------------------------|
|                                                |
|------------------------------------------------|
|-----------------13------12---------------------|
|-14--------------------------------------14-----|
|------------------------------------------------|
|------------------------------------------------|
|------------------------------------------------|


|-15---------------------------------------------|
|-----15--17------15------12---------------------|
|-------------16------14------12--14------12-----|
|-------------------------------------14------12-|
|------------------------------------------------|
|------------------------------------------------|
|                                                |
|-------------------------15---------------------|
|------------------------------------------------|
|-12---------------------------------------------|
|------------------------------------------------|
|------------------------------------------------|
|------------------------------------------------|


|-14---------------------------------------------|
|-----15--17------15------12---------------------|
|-------------16------14------12--14--11--12-----|
|---------------------------------------------14-|
|------------------------------------------------|
|------------------------------------------------|
|                                                |
|-14------12-------------------------------------|
|-----------------15------12--------------13-----|
|------------------------------------------------|
|------------------------------------------------|
|------------------------------------------------|
|------------------------------------------------|


|-14----------------------14---------------------|
|-----15----------------------15-----------------|
|---------14----------------------14-------------|
|-------------16----------------------16---------|
|-----------------17----------------------17-----|
|---------------------17----------------------17-|
|                                                |
|------------------------------------------------|
|-15----------------------12---------------------|
|------------------------------------------------|
|------------------------------------------------|
|------------------------------------------------|
|------------------------------------------------|


|-15----------------------15---------------------|
|-----17----------------------17-----------------|
|---------16----------------------16-------------|
|-------------17--14------------------17--14-----|
|---------------------14----------------------14-|
|------------------------------------------------|
|                                                |
|------------------------------------------------|
|-(12)-------------------------------------------|
|------------------------------------------------|
|------------------------------------------------|
|------------------------------------------------|
|------------------------------------------------|


|---------------------19--22------------17--19-|
|-------------17--20----------------17---------|
|---------16--------------------16-------------|
|-----17---------------------------------------|
|-19-------------------------------------------|
|----------------------------------------------|
|                                              |
|----------------------------------------------|
|-12--------------12---------------------------|
|---------14--------------12-------------------|
|----------------------------------------------|
|----------------------------------------------|
|----------------------------------------------|


|---------17--22--------------------17---------|
|-----17------------------------17-------------|
|-16------------------------16-----------------|
|-----------------------17---------------------|
|-------------------19-------------------------|
|----------------------------------------------|
|                                              |
|----------------------------------------------|
|----------------------------------------------|
|-----------------------12------14-------------|
|----------------------------------------------|
|----------------------------------------------|
|----------------------------------------------|


|---------------------19--22------------17--19-|
|-------------17--20----------------17---------|
|---------16--------------------16-------------|
|-----17---------------------------------------|
|-19-------------------------------------------|
|----------------------------------------------|
|                                              |
|----------------------------------------------|
|-12--------------12---------------------------|
|---------14--------------12-------------------|
|----------------------------------------------|
|----------------------------------------------|
|----------------------------------------------|


|---------17--22--------------------17---------|
|-----17------------------------17-------------|
|-16------------------------16-----------------|
|-----------------------17---------------------|
|-------------------19-------------------------|
|----------------------------------------------|
|                                              |
|----------------------------------------------|
|-------------------------------16-------------|
|----------------------------------------------|
|-------------------13-------------------------|
|----------------------------------------------|
|----------------------------------------------|


|-----------------17------------------17-|
|-------------17------------------17-----|
|---------16------------------16---------|
|-----17------------------17-------------|
|-19------------------19-----------------|
|----------------------------------------|
|                                        |
|-----------------------------14---------|
|-15------15--14--15--16-----------------|
|----------------------------------------|
|----------------------------------------|
|----------------------------------------|
|----------------------------------------|


|-----------------17------------------17-|
|-------------17------------------17-----|
|---------16------------------16---------|
|-----17------------------17-------------|
|-19------------------19-----------------|
|----------------------------------------|
|                                        |
|-----------------------------19------17-|
|-17----------16--17--18-----------------|
|----------------------------------------|
|----------------------------------------|
|----------------------------------------|
|----------------------------------------|


|---------------------19--22------------17--19-|
|-------------17--20----------------17---------|
|---------16--------------------16-------------|
|-----17---------------------------------------|
|-19-------------------------------------------|
|----------------------------------------------|
|                                              |
|----------------------------------------------|
|-12--------------12---------------------------|
|---------14--------------12-------------------|
|----------------------------------------------|
|----------------------------------------------|
|----------------------------------------------|


|---------17--22--------------------17---------|
|-----17------------------------17-------------|
|-16------------------------16-----------------|
|-----------------------17---------------------|
|-------------------19-------------------------|
|----------------------------------------------|
|                                              |
|----------------------------------------------|
|----------------------------------------------|
|-----------------------12------14-------------|
|----------------------------------------------|
|----------------------------------------------|
|----------------------------------------------|


|-----------------------------------------|
|-------------16------------------16------|
|---------15------------------16----------|
|-----17------------------19--------------|
|-18------------------18------------------|
|-----------------------------------------|
|                                         |
|-----------------------------------------|
|-----------------------------------------|
|-15------14------15----------------------|
|---------------------13------------------|
|-----------------------------------------|
|-----------------------------------------|


|-----------------------------------------|
|-------------16------------------16------|
|---------15------------------16----------|
|-----17------------------19--------------|
|-18------------------18------------------|
|-----------------------------------------|
|                                         |
|-----------------------------------------|
|-----------------------------------------|
|-------------------------------------12--|
|---------------------13------15----------|
|-----------------------------------------|
|-----------------------------------------|


|-----------------------------------------|
|-------------16------------------16------|
|---------15------------------16----------|
|-----17------------------19--------------|
|-18------------------18------------------|
|-----------------------------------------|
|                                         |
|-----------------------------------------|
|-----------------------------------------|
|---------12------14------12--14------15--|
|-15--------------------------------------|
|-----------------------------------------|
|-----------------------------------------|


|-----------------------------------------|
|-------------16------------------16------|
|---------15------------------16----------|
|-----17------------------19--------------|
|-18------------------18------------------|
|-----------------------------------------|
|                                         |
|-----------------------------------------|
|---------------------13------15--16------|
|-14------15------------------------------|
|-----------------------------------------|
|-----------------------------------------|
|-----------------------------------------|


|-----------------------------------------|
|-------------15------------------15------|
|---------14------------------14----------|
|-----17------------------17--------------|
|-17------------------17------------------|
|-----------------------------------------|
|                                         |
|-----------------------------------------|
|-15--------------------------------------|
|-----------------------------------------|
|-----------------------------------------|
|-----------------------------------------|
|-----------------------------------------|


|-----------------------------------------|
|-------------15------------------15------|
|---------14------------------14----------|
|-----16------------------16--------------|
|-17------------------17------------------|
|-----------------------------------------|
|                                         |
|-----------------------------------------|
|-(15)------------------------------------|
|-----------------------------------------|
|-----------------------------------------|
|-----------------------------------------|
|-----------------------------------------|

Repeat from where the lead starts.
Login or Register to remove this ad.