Login or Register to remove this ad.

Troian Beauty (Final Fantasy IV) Guitar Tab

Submitted: Jan 17, 2008 by Kabukibear (Last updated: Sep 26, 2009)

4.78261
Average: 4.8 (23 votes)
Download | Listen
Game: Final Fantasy IV
Composer(s): Nobuo Uematsu
Style: Arrangement, Fingerstyle
Series: Final Fantasy

AutoScroll: Slow | Medium | Fast
Troian Beauty                                   
~Final Fantasy IV~
Composed by: Nobuo Uematsu
Arranged by: Justin Lincoln

Drop D Tuning


bpm=85


     S S S S S S S S S S S S    S S S S S S S S S S S S      E  E  E  E  E  E   
E||--3---0-------------------|--3---0-------------------||---------------------|
B||----3---0-3---0-----------|----3---0-3---0-----------||---0--------------0--|
G||------------2---0-2---0---|------------2---0-2---0---||*--------7--5--------|
D||--------------------2---0-|--------------------2---0-||*-----0--0-----0--0--|
A||--------------------------|--------------------------||---------------------|
D||--------------------------|--------------------------||---5--------5--------|


  E  E  E  E  E  E     E  E  E  E  E  E     E  E  E  E  E  E   
--------------------|-----------3--------|--2--0--------------|
--------1--0--------|--------------------|--------3--0-----1--|
--2--------------2--|--0-----------------|-----0--0-----0--0--|
--------------------|--------------------|--------------------|
-----3--3-----3--3--|-----2--2-----2--2--|--3--------3--------|
--3--------3--------|--2--------2--------|--------------------|


  E  E  E  E  E  E     E  E  E  E  E  E     E  E  E  E  E  E   
--------------------|-----------0--------|--------------------|
--3--------0--------|--0-----0-----3--1--|--0-----0-----------|
--------------------|-----0--------------|-----2-----0--------|
--------------------|--------------------|-----2--2-----2--2--|
-----0--0-----2--2--|--------------------|--3--------3--------|
--0--------1--------|--2-----2--3-----3--|--------------------|


  ^                                       ^                
  Q.     E  E  E     E  E  E  E  E  E     Q.     E  E  E   
------------------|--------------------|------------------|
------------------|--0-----0-----------|---------------4--|
--0---------0--2--|-----2-----0--------|--0---------------|
--2---------------|-----1--1-----1--1--|--1---------------|
--3---------------|--3--------3--------|--3---------------|
---------2--------|--------------------|---------1--------|


  E  E  S S E  E  E     E  E  S S E  E  E     E  E  E  E  E  E   
------------------2--|--0-------0----7--5--|--------------------|
--3-----0-3-4--------|--------4---6--------|--0-----0-----------|
---------------------|---------------------|-----2-----0--------|
-----0--0------------|---------------------|-----2--2-----2--2--|
---------------0--0--|-----2--2------------|--3--------3--------|
--5---------4--------|--2---------0--------|--------------------|


  ^                                                        
  Q.     E  E  E     E  E  E  E  E  E     Q.     E  E  E   
------------------|--------------------|------------------|
------------------|--------------------|------------------|
--0---------0--2--|--3--2--3-----------|------------------|
--2---------------|-----1--1--1--------|------------1--3--|
--3---------------|--3--------3--1--0--|------------------|
---------2--------|--------------------|--1---------------|


  E  E  E  E  S S E     E  E  E  E  S S E     E  E  E  E  E  E   
---------------------|---------------------|--------------------|
---------------------|-----------1----3-4--|--3-----------------|
--0-----0--2----0-2--|--3--2--3------------|-----0--0-----0--0--|
-----3---------------|---------------------|--------------------|
-----1--1-----3---3--|-----1--1-----3---3--|--------------------|
--1--------1---------|--1--------1---------|--0--------0--------|


                                ^                        
  E  E  E  E  E  E       Q.     Q.        H.             
---------------------||---------3------|--L------------||
--L------------------||---------3------|--L------------||
--------------------*||---------4------|--L------------||
-----4--4-----------*||----------------|---------------||
---------------------||----------------|---------------||
--0--------0--2--4---||--5------5------|--L------------||




Duration Legend
---------------
W - whole
H - half
Q - quarter
E - 8th
S - 16th
T - 32nd
X - 64th
. - note dotted
|-n-|  - n-tuplets


Tablature Legend
----------------
L - tied note
v - brush down
Login or Register to remove this ad.

7 comments on Troian Beauty

Thanks for posting it

Thanks for posting it

Oh hellz yeah. Very nice.

Oh hellz yeah. Very nice.

one of the most fulfilling

one of the most fulfilling pieces i've played in a long time.. thanks dude

Cool-heeeey waitaminute.

Cool-heeeey waitaminute. this is that game I bought for the ds for 40 bucks and sold two days later for half of that because it sucked. Oh well. Nice tab Kabuki (as always)

Ahhh, great!

5

Ahhh, great!

vgg

one of my favorites! thank you for the excellence!

Bootiful

5

Bootiful, just bootiful.