Login or Register to remove this ad.

Theme of Love (Final Fantasy IV) Guitar Tab

Submitted: Oct 03, 2007 by ronito (Last updated: Sep 19, 2009)

4.95
Average: 5 (20 votes)
Download | Listen
Game: Final Fantasy IV
Composer(s): Nobuo Uematsu
Style: Arrangement, Fingerstyle
Series: Final Fantasy

AutoScroll: Slow | Medium | Fast
     Q    Q    Q    Q       E  E  E  E  E  E  E  E
E||----------------------|-----2--2-----------------|
B||-------2----0---------|--------------------------|
G||----------------------|--0--------------0--------|
D||-----------------4----|--------------2-----2--0--|
A||----------------------|-----------2--------------|
E||----------------------|--0-----------------------|

  Q    E  E  T T S E  E  E     E  E  E  E  E  E  E  E
-------0--2--0-2-0----------|--------0-----------------|
-------------------3--2--0--|--------------------------|
----------------------------|--2-----------------------|
----------------------------|-----4--------------------|
--4-------------------------|--------------0--4--0--4--|
----------------------------|--2--------2--------------|

  Q    E  E  T T S E  E  E     E  E  E  E  E  E  E  E
----------0----0------------|--------------------------|
-------3-----3---3-2--0-----|-----3--3-----------------|
----------------------------|-----------2--0-----------|
-------------------------2--|--4--------------4--2--0--|
--2-------------------------|--------------------------|
----------------------------|--0-----------------------|

  Q    E  E  T T S E  E  E     E  E  E  E  E  E  E  E     Q    Q    Q    Q
-------------0-2-0----------|--------------------------|----------------------|
-------2--3--------3--2--0--|--------2-----------0--2--|--0----2----0---------|
----------------------------|--2--------------2--------|----------------------|
----------------------------|--0--4-----0--4-----------|--1--------------4----|
--4-------------------------|--------------------------|--2-------------------|
--5-------------------------|--------------------------|----------------------|

  E  E  E  E  E  E  E  E     Q    E  E  T T S E  E  E
-----2--2-----------------|-------0--2--0-2-0----------|
--------------------------|-------------------3--2--0--|
--0--------------0--------|----------------------------|
--------------2-----2--0--|----------------------------|
-----------2--------------|--4-------------------------|
--0-----------------------|----------------------------|

  E  E  E  E  E  E  E  E     Q    E  E  T T S E  E  E
--------0-----------------|----------0----0------------|
--------------------------|-------3-----3---3-2--0-----|
--2-----------------------|----------------------------|
-----4--------------------|-------------------------2--|
--------------0--4--0--4--|--2-------------------------|
--2--------2--------------|----------------------------|

  E  E  E  E  E  E  E  E     Q    E  E  T T S E  E  E
--------------------------|-------------0-2-0----------|
-----3--3-----------------|-------2--3--------3--2--0--|
-----------2--0-----------|----------------------------|
--4--------------4--2--0--|----------------------------|
--------------------------|--4-------------------------|
--0-----------------------|--5-------------------------|

  E  E  E  E  E  E  E  E     Q    E  E  E  E  E  E     E  E  E  E  E  E  E  E
--------------------------|-------------------------|--2-----------------2-----|
--0-----------------0-----|--0----0-----2-----3-----|--------------0-----------|
--------------------------|-------------------------|-----------2--------------|
-----1--4--1-----4-----4--|--1-------1--------------|--------0--------0-----0--|
--2-----------2-----------|--2-------------2-----0--|--------------------------|
--------------------------|-------------------------|-----3--------------------|

  E  E  E  E  T T S E  E  E     E  E  E  E  E  E  E  E
--0--------------------------|--0-----------------0-----|
-----------0----0---3--2--3--|--------------------------|
--------------2---2----------|-----------1--2-----------|
--------2--------------------|--------2--------2-----4--|
-----------------------------|--------------------------|
-----3-----------------------|-----2--------------------|

  E  E  E  E  E  E  E  E     E  E  E  E  E  E  E  E
--------------------------|--------------------------|
--3-----0--------2--0--2--|--3--------------2--0--2--|
--------------------------|--------0-----------------|
-----4-----4--------2-----|-----0-----4--2-----------|
--2-----------0-----------|--------------------------|
--------------------------|--3-----------------------|

  E  E  E  E  E  E  E  E     E  E  E  E  E  E  E  E     Q    Q    Q    Q
--------------------------|--------------------------|----------------------|
--3--------3--2-----0-----|--2--------------------2--|--2----2----0---------|
--------------------------|--------------------2-----|--2-------------------|
-----------------4-----0--|--------4--------4--------|--2--------------4----|
-----2--2-----------------|-----4-----4--4-----------|--0-------------------|
--1-----------------------|--2-----------------------|----------------------|

  E  E  E  E  E  E  E  E     Q    E  E  T T S E  E  E
-----2--2-----------------|-------0--2--0-2-0----------|
--------------------------|-------------------3--2--0--|
--0--------------0--------|----------------------------|
--------------2-----2--0--|----------------------------|
-----------2--------------|--4-------------------------|
--0-----------------------|----------------------------|

  E  E  E  E  E  E  E  E     Q    E  E  T T S E  E  E
--------0-----------------|----------0----0------------|
--------------------------|-------3-----3---3-2--0-----|
--2-----------------------|----------------------------|
-----4--------------------|-------------------------2--|
--------------0--4--0--4--|--2-------------------------|
--2--------2--------------|----------------------------|

  E  E  E  E  E  E  E  E     Q    E  E  T T S E  E  E
--------------------------|-------------0-2-0----------|
-----3--3-----------------|-------2--3--------3--2--0--|
-----------2--0-----------|----------------------------|
--4--------------4--2--0--|----------------------------|
--------------------------|--4-------------------------|
--0-----------------------|--5-------------------------|

  E  E  E  E  E  E  E  E     Q    Q    Q    Q       E  E  E  E  E  E  E  E
--------------------------|----------------------|-----2--2-----------------|
--------2-----------0--2--|--0----2----0---------|--------------------------|
--2--------------2--------|----------------------|--0--------------0--------|
--0--4-----0--4-----------|--1--------------4----|--------------2-----2--0--|
--------------------------|--2-------------------|-----------2--------------|
--------------------------|----------------------|--0-----------------------|

  Q    E  E  T T S E  E  E     E  E  E  E  E  E  E  E
-------0--2--0-2-0----------|--------0-----------------|
-------------------3--2--0--|--------------------------|
----------------------------|--2-----------------------|
----------------------------|-----4--------------------|
--4-------------------------|--------------0--4--0--4--|
----------------------------|--2--------2--------------|

  Q    E  E  T T S E  E  E     E  E  E  E  E  E  E  E
----------0----0------------|--------------------------|
-------3-----3---3-2--0-----|-----3--3-----------------|
----------------------------|-----------2--0-----------|
-------------------------2--|--4--------------4--2--0--|
--2-------------------------|--------------------------|
----------------------------|--0-----------------------|

  Q    E  E  T T S E  E  E     E  E  E  E  E  E  E  E
-------------0-2-0----------|--------------------------|
-------2--3--------3--2--0--|--0-----------------0-----|
----------------------------|--------------------------|
----------------------------|-----1--4--1-----4-----4--|
--4-------------------------|--2-----------2-----------|
--5-------------------------|--------------------------|

  Q    E  E  E  E  E  E     E  E  E  E  E  E  E  E
-------------------------|--2-----------------2-----|
--0----0-----2-----3-----|--------------0-----------|
-------------------------|-----------2--------------|
--1-------1--------------|--------0--------0-----0--|
--2-------------2-----0--|--------------------------|
-------------------------|-----3--------------------|

  E  E  E  E  T T S E  E  E     E  E  E  E  E  E  E  E
--0--------------------------|--0-----------------0-----|
-----------0----0---3--2--3--|--------------------------|
--------------2---2----------|-----------1--2-----------|
--------2--------------------|--------2--------2-----4--|
-----------------------------|--------------------------|
-----3-----------------------|-----2--------------------|

  E  E  E  E  E  E  E  E     E  E  E  E  E  E  E  E
--------------------------|--------------------------|
--3-----0--------2--0--2--|--3--------------2--0--2--|
--------------------------|--------0-----------------|
-----4-----4--------2-----|-----0-----4--2-----------|
--2-----------0-----------|--------------------------|
--------------------------|--3-----------------------|

  E  E  E  E  E  E  E  E     E  E  E  E  E  E  E  E     W
--------------------------|--------------------------|-------------------||
--3--------3--2-----0-----|--2--------------------2--|--0----------------||
--------------------------|--------------------2-----|-------------------||
-----------------4-----0--|--------4--------4--------|--4----------------||
-----2--2-----------------|-----4-----4--4-----------|--2----------------||
--1-----------------------|--2-----------------------|-------------------||

Duration Legend
---------------
W - whole
H - half
Q - quarter
E - 8th
S - 16th
T - 32nd
X - 64th
. - note dotted
|-n-|  - n-tuplets
Login or Register to remove this ad.

8 comments on Theme of Love

Just giving this tab some

Just giving this tab some love. Great stuff.

There are only a few tabs

There are only a few tabs that I truly love to play. This is definitely one of them.

Thank you

Thank you

definitely one of my

definitely one of my favorite songs to play. i get really into it.

Great thanks for this one!

5

Great thanks for this one!

Masterful

5

I was about to tab this myself, then came here and saw what a great job of it you did already.

So I'll give this 5 stars and look for something else to tab!

Truly beautiful man

5

Truly beautiful man

Definitely beefy for the left

5

Definitely beefy for the left hand, can tell it'll be lovely practiced up.