Victory Fanfare (Chrono Trigger) Guitar Tab

Submitted: Oct 03, 2007 by Jon Wagner

4
Average: 4 (2 votes)
Download | Listen
Game: Chrono Trigger
Composer(s): Nobuo Uematsu, Yasunori Mitsuda, Noriko Matsueda
Style: Transcription
Series: Chrono

AutoScroll: Slow | Medium | Fast
                                      LUCCA

  Q=210    "w" stands for wait and a tab number (I.E."(3)") s
tands for a ghost note whcih mean pretty much instead of holding
it for a certain amount of time u jus u have to play a different note
4/4
  Gtr I
  W          W          W          W
|----------|----------|----------|------|
|----------|----------|----------|------|
|----------|----------|----------|------|
|----------|----------|----------|------|
|----------|----------|----------|------|
|----------|----------|----------|------|

  H    Q.   E   E  E Q  +E  E E E   Q  E  E  +H        +H     Q.   E
|------3------|------3--(3)-2---2-|-2--3------------|---------3------|
|-----------3-|-8-10--------------|------10-(10)----|-(10)---------3-|
|-------------|-------------------|-----------------|----------------|
|-------------|-------------------|-----------------|----------------|
|-------------|-------------------|-----------------|----------------|
|-------------|-------------------|-----------------|----------------|

  E  E Q  +E  E E E   Q  E E +H       E E E E Q.   E   E  E Q  +E  E E E
|------3--(3)-2---3-|-5--7-7-(7)----|-7-8-7-5-3------|------3--(3)-2---2-|
|-8-10--------------|---------------|--------------3-|-8-10--------------|
|-------------------|---------------|----------------|-------------------|
|-------------------|---------------|----------------|-------------------|
|-------------------|---------------|----------------|-------------------|
|-------------------|---------------|----------------|-------------------|

  Q  E  E  +H        +E  E +Q   E E E E   E E E E  E E  E  E    W
|-2--3------------|---------------------|--------------------|-------|
|------10-(10)----|-(10)-8-(8)--3-5-6-5-|-6-8-6-8-10-8-10-13-|-15----|
|-----------------|---------------------|--------------------|-------|
|-----------------|---------------------|--------------------|-------|
|-----------------|---------------------|--------------------|-------|
|-----------------|---------------------|--------------------|-------|

   +Q   Q   Q.    E   E  E Q  +E  E E E   Q  E  E  +H        +H     Q.   E
|-------------------|------3--(3)-2---2-|-2--3------------|---------3------|
|-(15)-----15-------|-8-10--------------|------10-(10)----|-(10)---------3-|
|----------------15-|-------------------|-----------------|----------------|
|-------------------|-------------------|-----------------|----------------|
|-------------------|-------------------|-----------------|----------------|
|-------------------|-------------------|-----------------|----------------|

  E  E Q  +E  E E E   Q  E E +H       E E E E Q.   E   E  E Q  +E  E E E
|------3--(3)-2---3-|-5--7-7-(7)----|-7-8-7-5-3------|------3--(3)-2---2-|
|-8-10--------------|---------------|--------------3-|-8-10--------------|
|-------------------|---------------|----------------|-------------------|
|-------------------|---------------|----------------|-------------------|
|-------------------|---------------|----------------|-------------------|
|-------------------|---------------|----------------|-------------------|

  Q  E  E  +H        +E  E +Q   E E E E   E E E E  E E  E  E    W
|-2--3------------|---------------------|--------------------|-------|
|------10-(10)----|-(10)-8-(8)--3-5-6-5-|-6-8-6-8-10-8-10-13-|-15----|
|-----------------|---------------------|--------------------|-------|
|-----------------|---------------------|--------------------|-------|
|-----------------|---------------------|--------------------|-------|
|-----------------|---------------------|--------------------|-------|

   +Q   Q   Q.    E   E  E Q  +E  E E E   Q  E  E  +H        +H     Q.   E
|-------------------|------3--(3)-2---2-|-2--3------------|---------3------|
|-(15)-----15-------|-8-10--------------|------10-(10)----|-(10)---------3-|
|----------------15-|-------------------|-----------------|----------------|
|-------------------|-------------------|-----------------|----------------|
|-------------------|-------------------|-----------------|----------------|
|-------------------|-------------------|-----------------|----------------|

  E  E Q  +E  E E E   Q  E E +H       E E E E Q.   E   E  E Q  +E  E E E
|------3--(3)-2---3-|-5--7-7-(7)----|-7-8-7-5-3------|------3--(3)-2---2-|
|-8-10--------------|---------------|--------------3-|-8-10--------------|
|-------------------|---------------|----------------|-------------------|
|-------------------|---------------|----------------|-------------------|
|-------------------|---------------|----------------|-------------------|
|-------------------|---------------|----------------|-------------------|

  Q  E  E  +H        +E  E +Q   E E E E   E E E E  E E  E  E    W
|-2--3------------|---------------------|--------------------|-------|
|------10-(10)----|-(10)-8-(8)--3-5-6-5-|-6-8-6-8-10-8-10-13-|-15----|
|-----------------|---------------------|--------------------|-------|
|-----------------|---------------------|--------------------|-------|
|-----------------|---------------------|--------------------|-------|
|-----------------|---------------------|--------------------|-------|

   +Q   Q   Q.    E   E  E Q  +E  E E E   Q  E  E  +H        +H     Q.   E
|-------------------|------3--(3)-2---2-|-2--3------------|---------3------|
|-(15)-----15-------|-8-10--------------|------10-(10)----|-(10)---------3-|
|----------------15-|-------------------|-----------------|----------------|
|-------------------|-------------------|-----------------|----------------|
|-------------------|-------------------|-----------------|----------------|
|-------------------|-------------------|-----------------|----------------|

  E  E Q  +E  E E E   Q  E E +H       E E E E Q.   E   E  E Q  +E  E E E
|------3--(3)-2---3-|-5--7-7-(7)----|-7-8-7-5-3------|------3--(3)-2---2-|
|-8-10--------------|---------------|--------------3-|-8-10--------------|
|-------------------|---------------|----------------|-------------------|
|-------------------|---------------|----------------|-------------------|
|-------------------|---------------|----------------|-------------------|
|-------------------|---------------|----------------|-------------------|

  Q  E  E  +H        +E  E +Q   E E E E   E E E E  E E  E  E    W
|-2--3------------|---------------------|--------------------|-------|
|------10-(10)----|-(10)-8-(8)--3-5-6-5-|-6-8-6-8-10-8-10-13-|-15----|
|-----------------|---------------------|--------------------|-------|
|-----------------|---------------------|--------------------|-------|
|-----------------|---------------------|--------------------|-------|
|-----------------|---------------------|--------------------|-------|

   +Q   Q  H
|---------------*|
|-(15)----------*|
|---------------*|
|---------------*|
|---------------*|
|---------------*|
Login or Register to remove this ad.

1 comment on Victory Fanfare

i haven't tried to played

i haven't tried to played this as its tabbed but couldn't a number of these notes just change string to make it much easier to play?